Koji Kondo - Legend Of Zelda Overworld Chords & Tabs

 

Legend Of Zelda Overworld Chords & Tabs

Koji Kondo Chords & Tabs

Version: 1 Type: Tab 0 ratings
1 star 2 stars 3 stars 4 stars 5 stars
comments

Legend Of Zelda Overworld Tab

The Legend of Zelda (Overworld) - Koji Kondo
Tabbed by SpRiNgWaFfLe [springwaffle@comcast.net]

e----------------------------------------------------------------
b----------------------------------------------------------------
g-3----3-3-3-3-3-1-3--3-3-3-3-3-1-3--3-3-3-3-3-------------------
d----------------------------------------------3-3-3-3-3-3-3-3-3-
a----------------------------------------------------------------
e----------------------------------------------------------------
    *
e-------------------1--------4-6--6-6-6-4---4------1-----1-2-
b-------------1h3h4----6-6-7--------------7---6-7----4-4-----
g---3-----3-3------------------------------------------------
d-3---3------------------------------------------------------
a------------------------------------------------------------
e------------------------------------------------------------
[ Tab from: http://www.guitartabs.cc/tabs/k/koji_kondo/legend_of_zelda_overworld_tab.html ]
e-1---------1------------0--3-1------------------------------------1--------4-6--
b---4-2-2-4----4-2-1-1-3-------------------------------------1h3h4----6-6-7------
g---------------------------------------------------3----3-3---------------------
d-------------------------------3-3-3-3-3-3-3-3-3-3---3--------------------------
a--------------------------------------------------------------------------------
e--------------------------------------------------------------------------------

e-9-8-5--------6-5---------6-5---------2-1------------0--3-1---------------------
b--------6-7-------6--6-7------6--3-4------2----1-1-3----------------------------
g---------------------------------------------3----------------------------------
d------------------------------------------------------------3-3-3-3-3-3-3-3-3-3-
a--------------------------------------------------------------------------------
e--------------------------------------------------------------------------------

Go back to the * and loop as many times as you like.
Comments