Knorrig - I Just Cant Wait To Be King Chords & Tabs

 

I Just Cant Wait To Be King Chords & Tabs

Knorrig Chords & Tabs

Version: 2 Type: Bass Tab 0 ratings
1 star 2 stars 3 stars 4 stars 5 stars
comments

I Just Cant Wait To Be King Bass Tab

intro:- 

G----------------------------------------------------------5
D------------------------------------------------------3-5-
A-3-3-3-3-5-1-3--3-3-3-3-1-0----3-3-3-3-5-1-3--3-3-3-3------
E----------------------------3------------------------------

verse:- 

G--------------------*---------------- 
D--------------------*----------------- 
A----1>-----1>-------*-33-1-0-------------------- 
E-1>----1>------1>---*--------3----------------- 

chorus:- 
[ Tab from: http://www.guitartabs.cc/tabs/k/knorrig/i_just_cant_wait_to_be_king_btab_ver_2.html ]
G-------------------------------------------------10---- 
D--------------------------------------------8-10---- 
A-8888-10-6-8--8888-6-0----8888-10-6-8--8888------------- 
E-----------------------8-------------------------- 

verse 2:- 

G-----------------*---------------- 
D-----------------*---------------- 
A-1>-----3>-------*--33-1-0--------------- 
E----3>------1>---*---------3----------- 

bridge:- 

G--------------- 
D---------------- 
A----1>----1>----8-8-8--- 
E-1>----1>-------------

order - intro
        verse
        chorus
        verse2
        chorus
        bridge
        verse
        chorus
Comments