Knopfler Mark - What It Is Chords & Tabs

 

What It Is Chords & Tabs

Knopfler Mark Chords & Tabs

Version: 2 Type: Tab 0 ratings
1 star 2 stars 3 stars 4 stars 5 stars
comments

What It Is Tab

well i saw this tab of mark knopfler but didnt think it sounded quite
 right so i made a few minor adjustments could'nt do the slides and 
hammers though its a little heard for my not so musicallt tuned ears to
pick up on
e-----------------------------------------------
b--7--7--7p5-5----5-----7--5--5-----------------
g--6----------6---------------------------------
d-----------------------------------------------
a-----------------------------------------------
e-----------------------------------------------
[ Tab from: http://www.guitartabs.cc/tabs/k/knopfler_mark/what_it_is_tab_ver_2.html ]
e-----------------------------------------------
b--7--7--7p5-5----------------------------------
g-(6)---------6---4-----------------------------
d--------------------7-99-----------------------
a-----------------------------------------------
e-----------------------------------------------

e-----------------------------------------------
b--7--7--7p5-5----10--7h9p5---------------------
g--6----------6---------------------------------
d-----------------------------------------------
a-----------------------------------------------
e-----------------------------------------------

e-----------------------------------------------
b--7--7--7p5-5----------------------------------
g-(6)---------6--4------------------------------
d--------------------7-99-----------------------
a-----------------------------------------------
e-----------------------------------------------
Comments