Knopfler Mark - What It Is Chords & Tabs

 

What It Is Chords & Tabs

Knopfler Mark Chords & Tabs

Version: 1 Type: Tab 0 ratings
1 star 2 stars 3 stars 4 stars 5 stars
comments

What It Is Tab

   
Here is Mark Knopflers "What it is" intro and one other riff...

I think that intro goes like: 

F#m  D  E 

e-----------------------------------------------
h--7--7--7p5-----7-----5--7--5------------------
g--6----------6-----6---------------------------
d-----------------------------------------------
a-----------------------------------------------
e-----------------------------------------------

e-----------------------------------------------
h--7--7--7p5-----7-----5------------------------
g-(6)---------6-----6-----6---------------------
d----------------------------7--9---------------
a-----------------------------------------------
e-----------------------------------------------
[ Tab from: http://www.guitartabs.cc/tabs/k/knopfler_mark/what_it_is_tab.html ]
e-------------------------5---------------------
h--7--7--7p5-----7-----5-----7--5---------------
g--6----------6-----6---------------------------
d-----------------------------------------------
a-----------------------------------------------
e-----------------------------------------------

e-----------------------------------------------
h--7--7--7p5-----7-----5------------------------
g-(6)---------6-----6-----6---------------------
d----------------------------7--9---------------
a-----------------------------------------------
e-----------------------------------------------
 
 riff 0.53
e-------2----------------------------------------
h--5b7-----2-------------------------------------
g-------------2--1-------------------------------
d------------------4--2--------------------------
a------------------------------------------------
e------------------------------------------------

Sorry, thats all...  if you found any mistakes, send that to
sampo.riikonen@jippii.fi


Comments