Knopfler Mark - Feel Like Going Home Chords & Tabs

 

Feel Like Going Home Chords & Tabs

Knopfler Mark Chords & Tabs

Version: 1 Type: Tab 0 ratings
1 star 2 stars 3 stars 4 stars 5 stars
comments

Feel Like Going Home Tab

FEEL LIKE GOING HOME / MARK KNOPFLER & TOM JONES
Main Solo

tabbed by Andreas Tillmann 26/1/2002

e|-------------------------------------------------------------------
H|--------5-7-5-5~---------------------------------------------------
G|---4/6--------------7h9-7h9-6------9-----------------9-7~-(9)------
D|-------------------------------------11\9-7--------7---------------
A|---------------------------------7-------------7/9-----------------
E|-------------------------------------------------------------------

e|-------------------------------------------------------------------
H|--------------------------------------------5-7b9r7-5/7------------
G|---xx-4b6-b6--6h7p6-4---7-6--4----------4/6------------------------
D|----------------------7--------7-(7)-------------------------------
A|-------------------------------------------------------------------
E|-------------------------------------------------------------------

e|-----5--4----------------------------------------------------------
H|----7-----7-5h7p5---------7-6-5~/7---------------------------------
G|---6--------------7-6-5-4-----------------7-6h7p6-4-4b6r4-2--------
D|--------------------------------------4-4--------------------------
A|-------------------------------------------------------------------
E|-------------------------------------------------------------------

e|-------------------------------------------------------------------
H|------------------------12b14-b14-12b14-12-12--10p9h12-10-10-------
G|----9\7-6-(4)(2)----(9)--------------------------------------------
D|---11\9-7-(6)(2)-----x---------------------------------------------
A|--------------------x----------------------------------------------
E|-------------------------------------------------------------------
[ Tab from: http://www.guitartabs.cc/tabs/k/knopfler_mark/feel_like_going_home_tab.html ]
e|----------------------------------12-10p9-12-10-10/12--------------
H|-------------------------------10----------------------------------
G|---9h11-9h11p9------------9h11-------------------------------------
D|----------------(9/11p9)-------------------------------------------
A|-------------------------------------------------------------------
E|-------------------------------------------------------------------

e|-------------------------------------------------------------------
H|-------12b14-b14-b14r12--14-14h15p14-12-(10)(10)-------------------
G|---(9)-------------------------------------------------------------
D|----x--------------------------------------------------------------
A|---x---------------------------------------------------------------
E|-------------------------------------------------------------------

e|-------------------------------------------------------------------
H|---12/14-14-15-15/17-17-17-12-12(\10)------------------------------
G|-------------------------------------------------------------------
D|-------------------------------------------------------------------
A|-------------------------------------------------------------------
E|-------------------------------------------------------------------

e|-----14---------16p14--14p12---------------------------------------
H|---14--17b19-b19-----14-----14p12h14-12/13h14p13\12------14--------
G|---------------------------------------------------11(11)--14(/16)-
D|-------------------------------------------------------------------
A|-------------------------------------------------------------------
E|-------------------------------------------------------------------

e|---------------------------12----------------------12--------------
H|---------15-14h15p14-12-------12b14r12-10~---12/14-----------------
G|---11-11-----------------9-----------------------------------------
D|------------------------------------------------------14-13-12-(7)-
A|------------------------------------------------------16-15-14-(7)-
E|-------------------------------------------------------------------


This is the tab of the main solo in this wonderful song Knopfler played
with Tom Jones live at some time (I dunno when). The solo is picked w/
your fingers, and be sure to make it sound really emotional!
I didn't include any bars and stuff, the times u know. But you'll figure
it out when you listen to the song.

I might post the rest of it later, haven't tabbed it yet! 
Up till then - have fun guys!

Guitarrero
Comments