Knesiat Hasechel - Hayinu Osim Ahava Chords & Tabs

 

Hayinu Osim Ahava Chords & Tabs

Knesiat Hasechel Chords & Tabs

Version: 1 Type: Tab 0 ratings
1 star 2 stars 3 stars 4 stars 5 stars
comments

Hayinu Osim Ahava Tab

   
an israeli band called "the mind church" or "Knesiat Hasechel" in hebrew,
for more info on the band go to: http://www.amalnet.k12.il/meida/english/engi2107.htm

title:     Hayinu Osim Ahava
Artist:    Knesiat Hasechel
tabbed by: haim bilia


verse:
     Am Em  Am Em 
     Am Em  Am Em 
Chorus:
	C F  C F 	
	C G

riff:
E|-------------------
B|-------------------
G|---9--7-5-4--------
D|-------------7...--
A|-------------------
E|-------------------
[ Tab from: http://www.guitartabs.cc/tabs/k/knesiat_hasechel/hayinu_osim_ahava_tab.html ]
Verse:
     Am Em  Am Em 
     Am Em  Am Em 
Chorus
	
solo:
E|------------------------------------------------------------------
B|------------------------------------------------------------------
G|---9--7-5-4~5~4---------------9-9-9-7-5-4~5~4--------4-7----------
D|------------------5-7--5-------------------------5-7------5-------
A|-------------------------7----------------------------------7-----
E|------------------------------------------------------------------


it goes like this:
verse
Chorus
riff
Verse 
Chorus
solo
Verse 

enjoy ^_^
Comments