Kmfdm - Light Chords & Tabs

 

Light Chords & Tabs

Kmfdm Chords & Tabs

Version: 2 Type: Bass Tab 0 ratings
1 star 2 stars 3 stars 4 stars 5 stars
comments

Light Bass Tab

   
                              KMFDM-Light
          Tabbed by AstroZombie138
astrozombie138@hotmail.com

Extremely easy song, My band covers this one and I wrote a bassline for it since the one on
the CD is either nonexistant or impossible to discern from the song.Figure out the timing 
and where the riffs go yourself....For the weird synth parts with no guitar just bang on
the open E.


    Riff A                                         Riff B               
G---||------------------------------------------|-----------------------
D---||------------------------------------------|-----------------------
A---||--5h7--------7h8--------------------------|-----------------------
E---||-------0--0-------0--0--0--0--3--0--0--6--|--0--0--0--0--0--0-----
                                                                        
[ Tab from: http://www.guitartabs.cc/tabs/k/kmfdm/light_btab_ver_2.html ]
                                                        Riff C          
G----------------------------------------------------|------------------
D---2------------------------------------------------|------------------
A------0h2p0-----------------------------------------|--------7---------
E-------------3h0--0--0--0--0--0--0--0--0--2h3--2h3--|--0--0-----0------
                                                                        

                                                                        
G---------|-------------------------------------------------------------
D---------|-------------------------------------------------------------
A---7--8--|-------------------------------------------------------------
E---------|-------------------------------------------------------------
                                                                        



========================================================================
==            Created with a demo version of BUCKET O' TAB            ==
==              tablature creation software for Windows               ==
==                   http://www.his.com/~gse/bucket                   ==
========================================================================

Comments