Klank - Leave Chords & Tabs

 

Leave Chords & Tabs

Klank Chords & Tabs

Version: 1 Type: Tab 0 ratings
1 star 2 stars 3 stars 4 stars 5 stars
comments

Leave Tab

Band: Klank
song: Leave

Tabber: John Cukras
email: riffreaper@yahoo.com

tuning: Drop C

Riff 1:
D-------------------------------------------|
A-------------------------------------------|
F-------------------------------------------|
C-------------------------------------------|
G-5-4-----5-4--------5-4-----5-4-7----------|
C-5-4-000-5-4 x's 3--5-4-000-5-4-7    x's 5-|
pm    ...                ...

Riff 2:
D------------------------------------------|
A------------------------------------------|
F------------------------------------------|
C------------------------------------------|
G-3-2-----3-2--------3-2-----3-2-5---------|
C-3-2-000-3-2 x's 3--3-2-000-3-2-5   x's 2-|
pm    ...                ...

Riff 1 x's 2
[ Tab from: http://www.guitartabs.cc/tabs/k/klank/leave_tab.html ]
Riff 3:
D----------------------------------------------|
A----------------------------------------------|
F----------------------------------------------|
C----------------------------------------------|
G-333-0-333-0-33-7--333-0-333-0----------------|
C-333-0-333-0-33-7--333-0-333-0-000-000  x's 2-|
pm...   ...   ..    ...   ...   ... ...

Riff 1 x's 2

Riff 3

Riff 4:
D---------------------------------------------------|
A---------------------------------------------------|
F---------------------------------------------------|
C---------------------------------------------------|
G-2-2-2-2-33-5-2-2-2-2-2---------2-2-2-2-33-5-2-2-2-|
C-2-2-2-2-33-5-2-2-2-2-2  x's 3--2-2-2-2-33-5-2-2-2-|

Riff 5:
D----------------------------|
A----------------------------|
F----------------------------|
C----------555-333---------5-|
G-3333-555-333-111---------3-|
C-3333-555--------  x's 6----|

Riff 1 x's 3

Riff 2

Riff 3

Riff 5

Riff 6:
D---------------------------------|
A---------------------------------|
F---------------------------------|
C---------------------------------|
G---------------------------------|
C-1-3-1-2--1-3-1-2--2-3-5  x's 24-| (till end)
Comments