Klank - Animosity Chords & Tabs

 

Animosity Chords & Tabs

Klank Chords & Tabs

Version: 1 Type: Tab 0 ratings
1 star 2 stars 3 stars 4 stars 5 stars
comments

Animosity Tab

   
Band: Klank
song: animosity

Tabber: John Cukras
Email: riffreaper@yahoo.com

There is a remix of this song, but it is nothing like this version.
It contains no guitar at all and is about 3 minutes longer.

Tuning: Normal

Riff 1:
E--------------------------------------------------------------------|
B--------------------------------------------------------------------|
G--------------------------------------------------------------------|
D--------------------------------------------------------------------|
A-----------5/4----------5/4/7-----------5/4----------2-----3--------|
E-000000000-3/2-00000000-3/2/5-000000000-3/2-0000-0-1---0-2--  x's 4-|
pm.........     ........       .........     ....

Riff 2:
E-----------------------------------------------------------|
B-----------------------------------------------------------|
G-----------------------------------------------------------|
D-----------------------------------------------------------|
A-------------5/4/7--------------------7-----7-6-6----------|
E-00000-00000-3/2/5 x's 3 --000000-000-5-000-5-4-4    x's 2-|
pm..... .....               ...... ...   ...
[ Tab from: http://www.guitartabs.cc/tabs/k/klank/animosity_tab.html ]
Riff 3:
E---------------------------------------------------------------------------|
B---------------------------------------------------------------------------|
G---------------------------------------------------------------------------|
D-------3/5-5-4-4--------3/5-5-4-7---------------3/5-5-4-4------------------|
A-------1/3-3-2-2--------1/3-3-2-5---------------1/3-3-2-2------7-----7-6-6-|
E-00000-----------000000---------- x's 3--000000-----------0000-5-000-5-4-4-|
pm.....           ......                  ......           ....   ...

Riff 2 once

Riff 4:
E--------------------------------------------------------------|
B--------------------------------------------------------------|
G--------------------------------------------------------------|
D--------------------------------------------------------------|
A-7-----7-6-6---5----5----5----5----5/4/7----------7-----7-6-6-|
E-5-000-5-4-4---3-00-3-00-3-00-3-00-3/2/5 x's 11---5-000-5-4-4-|
pm  ...           ..   ..   ..   ..                  ...

Riff 2

Riff 5:
E-----------------------------|
B-----------------------------|
G-----------------------------|
D-------------------4/3-------|
A--------4/5--------2/1-------|
E-000000-2/3-000000---- x's 4-|
pm......     ......

Riff 3 x's 2

End:
E---------|
B---------|
G---------|
D---------|
A-------4-|
E-00000-2
pm.....
Comments