Klamydia - Kuvat Chords & Tabs

 

Kuvat Chords & Tabs

Klamydia Chords & Tabs

Version: 1 Type: Tab 0 ratings
1 star 2 stars 3 stars 4 stars 5 stars
comments

Kuvat Tab

   
klamydia - kuvat

Intro
E|--------------------------------------------------------|
H|--------------------------------------------------------|
G|--------------------------------------------------------|
D|--5—-7—-9----10—-9---7----5—-7—-9--10—-9---7---5—-5—-7--|
A|--3--5--7----12--11--9----3--5--7--12--11--9---7--3—-5--|
E|--------------------------------------------------------|

    G5      F#5   E5
Niin kaukana omasta maasta,
      G5     F#5       E5
vanha ystävä mitä etsitkään.
     G5            F#5        E5
Tää umpeen kasvanut polku ei sua kaipaa,
    G5        F#5        E5
ikihongat uhkaavina tuijjottaa.


E|-----------------|
H|-----------------|
G|-----------------|
D|--7—-5—---7------|
A|--5--3----5--9---|
E|-------------7---|



G5         F#5       E5
Myrskyt ne teki tehtävänsä,
ajat sitten sä varmaan huomaat sen.
Ei hirttä hirren päälle voinut jättää,
sota jonka luonto kesti kärsien.


D5          A5           D5           A5
wooo-ooo-ooo-ooo...woo-oo-ooo-ooo-ooo-ooo

(korkeampi E5 kertösäkeessä)

      E5           C5         D5          E5
Silti hymyillen kävelet halki näiden metsien, 

          D|--9--|
          A|--11-|
E5                 D5   E5
jotain tiedät mitä minä en.
E5          C5           D5         E5
Kuvat joita muistoissasi kannat hellien, 
[ Tab from: http://www.guitartabs.cc/tabs/k/klamydia/kuvat_tab.html ]
             D|--9--|
             A|--11-|
E5                     D5    E5
ne peittää sulta karun totuuden.


(play intro)


(same chords that in part 1 )

Ei tää taivas ookkaan sulle vieras,
turhaan puolestasi pelkäsin.
Viimeisen kerran katsot taakses,
silmät loistaen kasvoin iloisin.

wooo-ooo-oo...woo-oo-oo....
Silti hymyillen kävelet halki näiden metsien, 
jotain tiedät mitä minä en.
Kuvat joita muistoissasi kannat hellien, 
ne peittää sulta karun totuuden.

Ystäväni meni kiven kantoon, 
katosi ilmaan mukaan puhurin.
Ainakin tiesi mitä tahtoi,
minä mietin mitä itse tekisin.

wooo-ooo-oo...woo-oo-oo....
Silti hymyillen kävelet halki näiden metsien, 
jotain tiedät mitä minä en.
Kuvat joita muistoissasi kannat hellien, 
ne peittää sulta karun totuuden.

end soolo


E|---------------------------------------------------------------|
H|---------------------------------------------------------------|
G|------------------9--7--4-----------7--4-----------------------|
D|4-5-7-9-7-5-4--5-----------7-5--5-7------5-4-2-4-5—7—5-4—2—2-0-|
A|--------------------------------------------------------------2|
E|---------------------------------------------------------------|





E|---------------------------------------------------------------|
H|---------------------------------------------------------------|
G|9-7—7r9-7-5-4—2-4-5-4—2b---7—9—12p11r12—12-11p9r11p9r11-9-11911|
D|---------------------------------------------------------------|
A|---------------------------------------------------------------|
E|---------------------------------------------------------------|
Comments