Kk - Yaaron Chords & Tabs

 

Yaaron Chords & Tabs

Kk Chords & Tabs

Version: 1 Type: Tab 0 ratings
1 star 2 stars 3 stars 4 stars 5 stars
comments

Yaaron Tab

   
hey ppl....
dis is mah 1st tab...so dunno id itz all rite... at least it soundz 90% correct.......njoi..
by da way u can mail me at zahebhere@yahoo.com

This part is palyd thru out da song.....(the song starts with this part too)
E|-------0-1-0---|------|------------------------------------------|
B|------2-----2--|--2-0-|--22-22-2---------------------------------|
G|-----3-------3-|-3----|-3----------------------------------------|
D|----0----------|------|------------------------------------------|
A|---------------|------|------------------------------------------|
E|---------------|------|------------------------------------------|

the chords r like dis:
(there's a riff in between marked by *)

D.........G......D............G.....A....
Yaaron, dosti bari hi haseen hai
.........D......G...........D...................G...A..
Ye na ho to, kya phir, bolo yeh zindagi hai
......Bm........G....
Koi to ho razdaar
.......D..............Em..
Begaraz tera ho yaar
.....Bm...........D......
Koi to ho raazdaar *

D..........G............D..............G....A...
Yaaron, mohabbat hi to bandagi hai
.........D......G.........D....................G..A...
Ye na ho to kya phir bolo yeh zindagi hai
.....Bm.............G.....
Koi to dilbar ho yaar
D....................Em...
Jisko tujhse ho pyar
.....Bm.............D.....
Koi to dilbar ho yaar *
[ Tab from: http://www.guitartabs.cc/tabs/k/kk/yaaron_tab.html ]
Bm........F#m..........G................D....
Teri har ek buraee pe dante woh dost
Bm..............F#m.....................G..............D.......G
Gham ki ho dhoop to saaya bane tera woh dost
G...................D...........A.......
Nache bhi woh teri khushi se

D.........G......D............G.....A....
Yaaron, dosti bari hi haseen hai
.........D......G...........D...................G...A..
Ye na ho to, kya phir, bolo yeh zindagi hai
......Bm........G....
Koi to ho razdaar
.......D..............Em..
Begaraz tera ho yaar
.....Bm...........D......
Koi to ho raazdaar *


Bm.............F#m..........G...............D...
Tanman kare tujhpe fida mehboob woh
Bm..........F#m.............G...............D............G
Palkon pe jo rakhe tujhe mehboob woh
G...........D...........A......
Jiski wafaa tere liye ho

D..........G............D..............G....A...
Yaaron, mohabbat hi to bandagi hai
.........D......G.........D....................G..A...
Ye na ho to kya phir bolo yeh zindagi hai
.....Bm.............G.....
Koi to dilbar ho yaar
D....................Em...
Jisko tujhse ho pyar
.....Bm.............D.....
Koi to dilbar ho yaar *

*Filler riff :

E|----------5-------2------1p0---------------------------------------------|
A|--------------------------------------3----------------------------------|
D|-------------------------------------------------------------------------|
G|-------------------------------------------------------------------------|
B|-------------------------------------------------------------------------|
E|-------------------------------------------------------------------------|
Comments