Kjwan - Daliri Chords & Tabs

 

Daliri Chords & Tabs

Kjwan Chords & Tabs

Version: 2 Type: Tab 0 ratings
1 star 2 stars 3 stars 4 stars 5 stars
comments

Daliri Tab

Daliri by Kjwan

tabber : Rhenee Nucum
contact :wnzr@yahoo.com /  09103899366

drop D tuning 
the notes below should sound exactly the same.
 
e|----------------------|
B|----------------------|
G|----------------------|
D|----------------------|
A|-0--------------------|
D|-7--------------------|

 Tab Symbols
_____________________
 h  = Hammer On
 p  = Pull Off from
 ~  = vibrate
  b  = Bend Up
 / \ = Slides
 x  = palm mute
 M  = mute
_____________________
===================================================

intro 
e|--------------------------------------------------|
B|--------------------------------------------------|
G|--------------------------------------------------|
D|-0--3--5--7--5--3h5--3--5--3--0--3--0--0----------|
A|-0--3--5--7--5--3h5--3--5--3--0--3--0--0----------|
D|-0--3--5--7--5--3h5--3--5--3--0--3--0--0----------|

e|-----------------------------------------------------|
B|-----------------------------------------------------|
G|-----------------------------------------------------|
D|-0--3--5/7--7\5--0--3h5--3--5--3--0--3--0--0----------|
A|-0--3--5/7--7\5--0--3h5--3--5--3--0--3--0--0----------|
D|-0--3--5/7--7\5--0--3h5--3--5--3--0--3--0--0----------|

Verse 1
e|---------|
B|---------|
G|---------|
D|-0--3--5-|
A|-0--3--5-|
D|-0--3--5-|
  ma  ra mi

e|-----------------------------------|
B|-----------------------------------|
G|-----------------------------------|
D|-0--3--0--3--5M----0--3--0--3--5M--|
A|-0--3--0--3--5M----0--3--0--3--5M--|
D|-0--3--0--3--5M----0--3--0--3--5M--|
ang nagsabing


e|-----------------------------------|
B|-----------------------------------|
G|-----------------------------------|
D|-0--3--p0--3--5M----0--3--p0--3--5M|
A|-0--3--p0--3--5M----0--3--p0--3--5M|
D|-0--3--p0--3--5M----0--3--p0--3--5M5|
daliri mo'y marumi


e|-----------------------------------|
B|-----------------------------------|
G|-----------------------------------|
D|-0--3--0--3--5M----0--3--0--3--5M--|
A|-0--3--0--3--5M----0--3--0--3--5M--|
D|-0--3--0--3--5M----0--3--0--3--5M--|
kung minsa'y sinasabi


e|-----------------------------------|
B|-----------------------------------|
G|-----------------------------------|
D|-0--3--p0--3--5M----0--3--0--3--5M-|
A|-0--3--p0--3--5M----0--3--0--3--5M-|
D|-0--3--p0--3--5M----0--3--0--3--5M-|
ang hawak mo ay sungkit (??)


e|----------------------|
B|----------------------|
G|----------------------|
D|-5--5/8--5------------|
A|-5--5/8--5------------|
D|-5--5/8--5------------|


e|-----------------------------------|
B|-----------------------------------|
G|-----------------------------------|
D|-0--3--0--3--5M----0--3--0--3--5M--|
A|-0--3--0--3--5M----0--3--0--3--5M--|
D|-0--3--0--3--5M----0--3--0--3--5M--|
ang init ng yong kapit


e|-----------------------------------|
B|-----------------------------------|
G|-----------------------------------|
D|-0--3--0--3--5M----0--3--p0--3--5M|
A|-0--3--0--3--5M----0--3--p0--3--5M|
D|-0--3--0--3--5M----0--3--p0--3--5M5|
tuloy-tuloy ang higpit


e|-----------------------------------|
B|-----------------------------------|
G|-----------------------------------|
D|-0--3--p0--3--5M----0--3--0--3--5M-|
A|-0--3--p0--3--5M----0--3--0--3--5M-|
D|-0--3--p0--3--5M----0--3--0--3--5M-|
nawawala ang alaala

e|-----------------------------|
B|-----------------------------|
G|-----------------------------|
D|-0--3--p0--3--5M----0h3~--5~-|
A|-0--3--p0--3--5M----0h3~--5~-|
D|-0--3--p0--3--5M----0h3~--5~-|
nawawala ang        sakit...


Chorus
e|-----------------------------------|
B|-----------------------------------|
G|-----------------------------------|
D|-5---------3--------0-3h5-0--------|
A|-5---------3--------0-3h5-0--------|
D|-5---------3--------0-3h5-0--------|
    di mo na maalala

e|-----------------------------------|
B|-----------------------------------|
G|-----------------------------------|
D|-5---------3--------0-3h5-0--------|
A|-5---------3--------0-3h5-0--------|
D|-5---------3--------0-3h5-0--------|
    kung saan ka pupunta

e|-----------------------------------|
B|-----------------------------------|
G|-----------------------------------|
D|-5---------3--------0-3h5-0--------|
A|-5---------3--------0-3h5-0--------|
D|-5---------3--------0-3h5-0--------|
    di mo na makilala

e|-------------------|
B|-------------------|
G|-------------------|
D|-5---------3~------|
A|-5---------3~------|
D|-5---------3~------|
      ang iyong....


Repeat Intro 
Ha!..

Verse 2
e|--------------|
B|--------------|
G|--------------|
D|-0-----3----5-|
A|-0-----3----5-|
D|-0-----3----5-|
  kung  min  san

e|-----------------------------------|
B|-----------------------------------|
G|-----------------------------------|
D|-0--3--0--3--5M----0--3--0--3--5M--|
A|-0--3--0--3--5M----0--3--0--3--5M--|
D|-0--3--0--3--5M----0--3--0--3--5M--|
may nagsabi


e|---------------------------------|
B|---------------------------------|
G|---------------------------------|
D|-0--3--0--3--5M----0--3--0--3--5M|
A|-0--3--0--3--5M----0--3--0--3--5M|
D|-0--3--0--3--5M----0--3--0--3--5M|
ang puso mo ay itim..


e|-----------------------------------|
B|-----------------------------------|
G|-----------------------------------|
D|-0--3--0--3--5M----0--3--0--3--5M--|
A|-0--3--0--3--5M----0--3--0--3--5M--|
D|-0--3--0--3--5M----0--3--0--3--5M--|
haling ng buwan sa hangin

[ Tab from: http://www.guitartabs.cc/tabs/k/kjwan/daliri_tab_ver_2.html ]
e|--------------------------------------|
B|--------------------------------------|
G|--------------------------------------|
D|-0--3--p0--3--5M----0--3h5-----3h5----|
A|-0--3--p0--3--5M----0--3h5-3h5-----5~-|
D|-0--3--p0--3--5M----0--3h5------------|
sabik sa mga salarahin


e|-----------------------------------|
B|-----------------------------------|
G|-----------------------------------|
D|-0--3--0--3--5M----0--3--0--3--5M--|
A|-0--3--0--3--5M----0--3--0--3--5M--|
D|-0--3--0--3--5M----0--3--0--3--5M--|
saan ka hahanapin?

e|-----------------------------------|
B|-----------------------------------|
G|-----------------------------------|
D|-0--3--p0--3--5M----0--3--p0--3--5M|
A|-0--3--p0--3--5M----0--3--p0--3--5M|
D|-0--3--p0--3--5M----0--3--p0--3--5M|
kailan ako titikim?

e|-----------------------------------|
B|-----------------------------------|
G|-----------------------------------|
D|-0--3--0--3--5M----0--3--p0--3--5M-|
A|-0--3--0--3--5M----0--3--p0--3--5M-|
D|-0--3--0--3--5M----0--3--p0--3--5M-|
nawawala ang alaala

e|-----------------------------|
B|-----------------------------|
G|-----------------------------|
D|-0--3--p0--3--5M----0h3~--5~-|
A|-0--3--p0--3--5M----0h3~--5~-|
D|-0--3--p0--3--5M----0h3~--5~-|
nawawala ang        sakit...

repeat Chorus


Eto na!!


e|--------------|
B|--------------|
G|--------------|
D|-0-----3----5-|
A|-0-----3----5-|
D|-0-----3----5-|

1st Solo (V = press wahwah pedal)(not sure about these) DO THIS 4 TIMES
       V      V      V       V  V
e|-3--h4--3--h5---1-h2--1-1-h2-h3------|
B|-3---3--3---3---1--1--1-1--1--1------|
G|-4---4--4---4---2--2--2-2--2--2------|
D|-------------------------------------|
A|-------------------------------------|
D|-------------------------------------|
       V      V      V  V V  V  V
e|-3--h4--3--h5---1-h2-h2-1-h2-h2------|
B|-3---3--3---3---1--1--1-1--1--1------|
G|-4---4--4---4---2--2--2-2--2--2------|
D|-------------------------------------|
A|-------------------------------------|
D|-------------------------------------|

Verse 3
e|-----------------------------------|
B|-----------------------------------|
G|-----------------------------------|
D|-0--3--0--3--5M----0--3--0--3--5M--|
A|-0--3--0--3--5M----0--3--0--3--5M--|
D|-0--3--0--3--5M----0--3--0--3--5M--|
marami ang nagsabing


e|-----------------------------------|
B|-----------------------------------|
G|-----------------------------------|
D|-0--3--p0--3--5M----0--3--p0--3--5M|
A|-0--3--p0--3--5M----0--3--p0--3--5M|
D|-0--3--p0--3--5M----0--3--p0--3--5M5|
daliri mo'y (may bahid)


e|-----------------------------------|
B|-----------------------------------|
G|-----------------------------------|
D|-0--3--0--3--5M----0--3--0--3--5M--|
A|-0--3--0--3--5M----0--3--0--3--5M--|
D|-0--3--0--3--5M----0--3--0--3--5M--|
kung minsa'y sinasabi

e|--------------------------------------|
B|--------------------------------------|
G|--------------------------------------|
D|-0--3--p0--3--5M----0--3h5-----5-3----|
A|-0--3--p0--3--5M----0--3h5-3h5-----5~-|
D|-0--3--p0--3--5M----0--3h5------------|
ang hawak mo ay (sungkit) 



e|-----------------------------------|
B|-----------------------------------|
G|-----------------------------------|
D|-0--3--0--3--5M----0--3--0--3--5M--|
A|-0--3--0--3--5M----0--3--0--3--5M--|
D|-0--3--0--3--5M----0--3--0--3--5M--|
ang init ng yong kapit


e|----------------------------------|
B|----------------------------------|
G|----------------------------------|
D|-0--3--0--3--5M----0--3--p0--3--5-x-x-x-x|
A|-0--3--0--3--5M----0--3--p0--3--5-x-x-x-x|
D|-0--3--0--3--5M----0--3--p0--3--5-x-x-x-x|
tuloy-tuloy (ang higpit)


e|---------------------------------------|
B|---------------------------------------|
G|---------------------------------------|
D|-0--3--p0--3--5--0--3--0--3--5M-x-x-x-x|
A|-0--3--p0--3--5--0--3--0--3--5M-x-x-x-x|
D|-0--3--p0--3--5--0--3--0--3--5M-x-x-x-x|
nawawala ang alaala


e |------------------|
B |--5b-6p5-5/3------|
G |--------------5b~-|
D |------------------|
A |------------------|
D |------------------|
   nawawala ang   sakit...


Repeat Chorus

2nd Solo

e |------3-5-3-1-3~--------3-5-1-1/3-3\1~|
B |--3-5---------------3-5---------------|
G |--------------------------------------|
D |--------------------------------------|
A |--------------------------------------|
D |--------------------------------------|


e |------3-5-3-1-3~-------------------------|
B |--3-5---------------3h5-3b4-3h5----3h5-5~|
G |--------------------------------5-3------|
D |-----------------------------------------|
A |-----------------------------------------|
D |-----------------------------------------|
Yeah!!

e |------3-5-3-1-1-1/3~-------3-5-1-5~-\3--|
B |--3-5-----------------3-5---------------|
G |----------------------------------------|
D |----------------------------------------|
A |----------------------------------------|
D |----------------------------------------|

e |------------2-1---------------|
B |--5-3-1-3-1-----3-1-----------|
G |--------------------3-1-3-2---|
D |----------------------------3~|
A |------------------------------|
D |------------------------------|

Outro
BASTUSAN NA!!!
e|---------------------------|
B|---------------------------|
G|---------------------------|  7 times
D|-0-3-3h5---0-3-3h5-x-x-x-x-|
A|-0-3-3h5---0-3-3h5-x-x-x-x-|
D|-0-3-3h5---0-3-3h5-x-x-x-x-|


then


e|-----------|
B|-----------|
G|-----------|  
D|-0-3-3h5---|
A|-0-3-3h5---|
D|-0-3-3h5---|

e |--5-3---------------|
B |------5-3-----------|
G |----------6-4-------|
D |--------------7-5---|
A |------------------7~|
D |--------------------|

Itama nyo na lang yung mga errors.
If anyone knows where I can find FUSEBOXX's album (Orig/pirated/mp3) please contact me.
Comments