Kjwan - Daliri Chords & Tabs

 

Daliri Chords & Tabs

Kjwan Chords & Tabs

Version: 1 Type: Tab 0 ratings
1 star 2 stars 3 stars 4 stars 5 stars
comments

Daliri Tab

   
Song: Daliri
Artist: Kjwan
Tabbed by: Paulo from UST's A.B. TunOrg

Tuning: D A D G B E (drop D)

Intro:
[ Tab from: http://www.guitartabs.cc/tabs/k/kjwan/daliri_tab.html ]
E|---------------------------|----------------------------------------|
B|---------------------------|----------------------------------------|
G|---------------------------|----------------------------------------|
D|-------------3-------------|----------------------------------------|
A|----3--3--5-----5---3/5----|---3--3--5--3---------------------------|
E|---------------------------|---------------5---3---0----------------|

E|---------------------------|----------------------------------------|
B|---------------------------|----------------------------------------|
G|---------------------------|----------------------------------------|
D|-------------3/5-----------|----------------------------------------|
A|----3--3--5-------5--3/5---|---3--3--5--3---------------------------|
E|---------------------------|---------------5---3---0----------------|

(Repeat 2X)
Comments