Kittie - What I Always Wanted Chords & Tabs

 

What I Always Wanted Chords & Tabs

Kittie Chords & Tabs

Version: 4 Type: Tab 0 ratings
1 star 2 stars 3 stars 4 stars 5 stars
comments

What I Always Wanted Tab

It took me like 5 mins to learn this song so its a fairly easy song to learn.the tuning is all wierded out so I just put it in drop D dut you can go to some of the other ones & get the real tuning the song is still right though.

[ Tab from: http://www.guitartabs.cc/tabs/k/kittie/what_i_always_wanted_tab_ver_4.html ]
------------------------------------------------
------------------------------------------------
------------------------------------------------x13
-2-2-2-/-3-0-1----------------------------------intro
-2-2-2-/-3-0-1----------------------------------
-2-2-2-/-3-0-1----------------------------------
the main lick of guitar is easy
------------------------------------------------
------------------------------------------------
------------------------------------------------
-3-/-2--3-------------------------------------------
-3-/-2--3-------------------------------------------
-3-/-2--3-------------------------------------------
3 is 15 times so is 2 for toses beginers out there / means slide your finger into the note

----------------------------------------------------
----------------------------------------------------corus
----------------------------------------------------
-2p-2p-h3-2-2-2------------------------/1-/6--------------x
-2p-2p-h3-2-2-2------------------------/1-/6-------------
-2p-2p-h3-2-2-2------------------------/1-/6--------------
you do this 3 times   then you do this^

& the outro it pretty much the intro played fast with a lot of palm mute    (listen to the song for strumming patterns)
thats it enjoy & rock on  
                           Vegeta3du 

Comments