Kittie - What I Always Wanted Chords & Tabs

 

What I Always Wanted Chords & Tabs

Kittie Chords & Tabs

Version: 3 Type: Tab 0 ratings
1 star 2 stars 3 stars 4 stars 5 stars
comments

What I Always Wanted Tab

Submitted by: Jesse Barty
Source: Guitar World December 2001

All guitars. Are in dropped-D tuning one whole step down (low to high: C G C F A D).
All notes and chords sound one whole step lower than written (key of Eb).


A Intro (0:00)
  Moderate Heavy Metal (124)

1 Guitar w/distortion
C|------------------|----------------|----------------|----------------|
G|------------------|----------------|----------------|----------------|
C|------------------|----------------|----------------|----------------|
F|----3--4--0--1----|----3--4--0--1--|----3--4--0--1--|----3--4--0--1--|
A|----3--4--0--1----|----3--4--0--1--|----3--4--0--1--|----3--4--0--1--|
D|----3--4--0--1----|----3--4--0--1--|----3--4--0--1--|----3--4--0--1--|
      |
Doubled throughout
                                 (repeat previous two measures.)
C|----------------|----------------|
G|----------------|----------------|
C|----------------|----------------|
F|----3--4--0--1--|----3--4--0--1--|
A|----3--4--0--1--|----3--4--0--1--|
D|----3--4--0--1--|----3--4--0--1--|

C|----------------|-----------------|
G|----------------|-----------------|
C|----------------|-----------------|
F|----3--4--0--1--|----3--4--0--15--|
A|----3--4--0--1--|----3--4--0--15--|
D|----3--4--0--1--|----3--4--0--15--|
[ Tab from: http://www.guitartabs.cc/tabs/k/kittie/what_i_always_wanted_tab_ver_3.html ]
B 1st Verse (0:23)
  Slower (68)
                   
                                    (repeat however many times)
C|----------------------------------------------------------------------------------------------------|
G|----------------------------------------------------------------------------------------------------|
C|----------------------------------------------------------------------------------------------------|
F|----3--3--3--3--3--3--3--3--3--3--3--3--3--3--3--3--0--0--0--0--0--0--0--0--0--0--0--0--0--0--0--0--|
A|----3--3--3--3--3--3--3--3--3--3--3--3--3--3--3--3--0--0--0--0--0--0--0--0--0--0--0--0--0--0--0--0--|
D|----3--3--3--3--3--3--3--3--3--3--3--3--3--3--3--3--0--0--0--0--0--0--0--0--0--0--0--0--0--0--0--0--|

(back to intro)

(repeat a few times)               (then add this)
C|-------------------------------|--------------------------------
G|-------------------------------|--------------------------------
C|-------------------------------|--------------------------------
F|----3--3--3--4--4--4--4--4--4--|----0--0--0--0--15--15--15--15--
A|----3--3--3--4--4--4--4--4--4--|----0--0--0--0--15--15--15--15--
D|----3--3--3--4--4--4--4--4--4--|----0--0--0--0--15--15--15--15--

and that's it. Questions, Comments, E-mail me at Ultimate@Kornfreak.com
Comments