Kittie - What I Always Wanted Chords & Tabs

 

What I Always Wanted Chords & Tabs

Kittie Chords & Tabs

Version: 1 Type: Tab 0 ratings
1 star 2 stars 3 stars 4 stars 5 stars
comments

What I Always Wanted Tab

   
Kittie
======
What I always wanted
--------------------

	D|------------------------------------------------------|
	A|------------------------------------------------------|
	F|------------------------------------------------------|
	C|------------------------------------------------------|
	G|------------------------------------------------------|
 ======>C|------------------------------------------------------|

Intro 1
D|--------------|
A|--------------|
F|--------------|
C|3---3-4-4-0-1-|
G|3---3-4-4-0-1-|
C|3---3-4-4-0-1-|
              - (short note)

Intro 2
D|--------------|
A|--------------|
F|--------------|
C|3-3-3-4-4-0-1-|
G|3-3-3-4-4-0-1-|
C|3-3-3-4-4-0-1-|
              -

Intro 1

Intro 3
D|---------------|
A|---------------|
F|---------------|
C|3-3-3-4-4-0-1\-|
G|3-3-3-4-4-0-1\-|
C|3-3-3-4-4-0-1\-|

Intro 4
D|---------------|
A|---------------|
F|---------------|
C|3---3-4-4-0-1\-|
G|3---3-4-4-0-1\-|
C|3---3-4-4-0-1\-|

Intro 3 - 4 - 3 - 4 - 3 - 4
[ Tab from: http://www.guitartabs.cc/tabs/k/kittie/what_i_always_wanted_tab.html ]
Intro 5
D|----------------|
A|----------------|
F|----------------|
C|3-3-3-4-4-0-12/-|
G|3-3-3-4-4-0-12/-|
C|3-3-3-4-4-0-12/-|

Verse
D|----------------------------------------------------------------|
A|----------------------------------------------------------------|
F|----------------------------------------------------------------|
C|4-4-4-4-4-4-4-4-4-4-4-4-4-4-4-0-3-3-3-3-3-3-3-3-3-3-3-3-3-3-3-0-|
G|4-4-4-4-4-4-4-4-4-4-4-4-4-4-4-0-3-3-3-3-3-3-3-3-3-3-3-3-3-3-3-0-|
C|4-4-4-4-4-4-4-4-4-4-4-4-4-4-4-0-3-3-3-3-3-3-3-3-3-3-3-3-3-3-3-0-| X2

Intro 1 - 2 - 1 - 5

Verse X4

Chorus
X 4
D|---------------------|
A|---------------------|
F|---------------------|
C|1-1-4-3---3-3---3--3-|
G|1-1-4-3---3-3---3--3-|
C|1-1-4-3---3-3---3--3-| X3
  . .

D|-----------------------|
A|-----------------------|
F|-----------------------|
C|3/2-2-2--2-2\7-7-7---7-|
G|3/2-2-2--2-2\7-7-7---7-|
C|3/2-2-2--2-2\7-7-7---7-|

Bass

Verse X4

Chorus X4

Outro
D|------------|
A|------------|
F|------------|
C|3\4-0-0-2/1-|
G|3\4-0-0-2/1-|
C|3\4-0-0-2/1-| X16
      . .

Chorus X1
Comments