Kittie - Raven Chords & Tabs

 

Raven Chords & Tabs

Kittie Chords & Tabs

Version: 3 Type: Bass Tab 0 ratings
1 star 2 stars 3 stars 4 stars 5 stars
comments

Raven Bass Tab

   
Artist: Kittie
Song: Raven
Album: Spit

Standard Tuning (BEADG)

Intro/Verse:

G/--------------------------------------
D/--------------------------------------
A/--------------------------------------
E/--------------------------------------
B/-3-3--1--3-3--1--3-3--1--3-3-4-3--3-3-

Chorus:
[ Tab from: http://www.guitartabs.cc/tabs/k/kittie/raven_btab_ver_3.html ]
G/---------------
D/---------------
A/---------------
E/---------------
B/-6-\3-/6-0-2-2-
*\ = slide down
 / = slide up
 
Bridge: ("What, is it me? you can't go out at nite, answer me...")

G/----------------------------------
D/----------------------------------
A/--------------------------------3-
E/------------------------------3---
B/-2-2-2-2-2x---2-2-2-2-2x--2-0-----
*x = mute

Outro: ("you sold your soul to...")

G/-----------------------------
D/-----------------------------
A/-----------------------------
E/-----------------------------
B/-3-2-3--3-2-3--3-2-3-4-3-2-3-
*last time this is played the last note is A/-3-
Comments