Kittie - Paperdoll Chords & Tabs

 

Paperdoll Chords & Tabs

Kittie Chords & Tabs

Version: 8 Type: Tab

Paperdoll Tab

 
------------------------------------------------------------------
                          PAPERDOLL-kittie
------------------------------------------------------------------

Spit album
2001
Morgan Lander and Fallon
crisis_junkie420@yahoo.com

          


figure out the pattern ya'self. it's really easy...


  
-------------------------------------------|
-------------------------------------------|
--9------9------9----11----------11-12-10--|
--9-9999-9-9999-9-99-11-11111111-11-12-10--|
--7-7777-7-7777-7-77- 9--9-9-9-9--9-10--8--|
-------------------------------------------|
    ....   ....   ..    ........


 

------------------------------------------------|
------------------------------------------------|  1st guitar
------------------------------------------------|
------------------------------------------------|
-----------------------9--9--9--11--11--12--10--|
-----------------------7--7--7---9---9--10---8--|
                                                |
                                                |
------------------------------------------------|
------------------------------------------------|  2nd guitar
--9-99999-9999999-10-1010101010-11111111111111--|
--7-77777-7777777--8--8-8-8-8-8--9-9-9-9-9-9-9--|
------------------------------------------------|
------------------------------------------------|



[ Tab from: http://www.guitartabs.cc/tabs/k/kittie/paperdoll_tab_ver_8.html ]
-------------------------|
-------------------------|
-------------------------|
-------------------------|
-------------------------|
--5h6-6660--5h6-66-0-77--|




-------------------------------|
-------------------------------|  1st guitar
-------------------------------|
--7-77-778777777-3-33-5-55555--|
--5-55-556555555-1-11-3-33333--|
-------------------------------|
                               |
                               |
                               |
-------------------------------|
-------------------------------|  2nd guitar
--7-7-7------------------------|   
--x-x-x------------------------|
--5-5-5------------------------|
-------------------------------|





-------------------------------|
-------------------------------|  1st guitar
-------------------------------|
--7-77-778777777-3-33-5-55555--|
--5-55-556555555-1-11-3-33333--|
-------------------------------|
                               |
                               |
                               |
-------------------------------|
-------------------------------|  2nd guitar
--7-77-778777777-3-33-5-55555--|
--x-xx-xxxxxxxxx-x-xx-x-xxxxx--|
--5-55-556555555-1-11-3-33333--|
-------------------------------|



-------------------------------|
-------------------------------|
--7-77-778777777-3-33-5-55555--|
--7-77-778777777-3-33-5-55555--|
--5-55-556555555-1-11-3-33333--|
-------------------------------|



-------------|
-------------|
-------------|
--7--3-5-----|
--5--1-3--5--|
----------3--|