Kittie - Paperdoll Chords & Tabs

 

Paperdoll Chords & Tabs

Kittie Chords & Tabs

Version: 6 Type: Tab 0 ratings
1 star 2 stars 3 stars 4 stars 5 stars
comments

Paperdoll Tab

-------------------------------------------------------------------------------
			     Paper Doll - Kittie
-------------------------------------------------------------------------------

Tabbed by:
Email:

Tuning: drop D

no tabs even look like this, and they claim to be right.  but play them along
with the song and they do not sound correct at all.  I played this along and it
sounds right so I figure it is good enough.   

verse
[ Tab from: http://www.guitartabs.cc/tabs/k/kittie/paperdoll_tab_ver_6.html ]
e|--------------------------------------------|
B|--------------------------------------------|
G|--------------------------------------------|
D|-7-x-x-x-x-7-x-x-x-x-7-x-x-8-x-x-x-x-8-10-8-| repeat several times
A|-5-x-x-x-x-5-x-x-x-x-5-x-x-6-x-x-x-x-6-8-6-|
D|--------------------------------------------|

chorus

e|----------------------------------------|
B|----------------------------------------|
G|----------------------------------------|
D|-0---3-3-3-0--0---3-3-3-0-4-4-----------| repeat several times
A|-0-h-3-3-3-0--0-h-3-3-3-0-4-4-----------|
D|-0---3-3-3-0--0---3-3-3-0-4-4-----------|

repeat verse
repeat chorus

(just writing out the chords here, figure out the rhythm.)

e|------------------------------|
B|------------------------------|
G|------------------------------|
D|-10---11-10-6-8---------------| repeat several times
A|-10-h-11-10-6-8--------------|
D|-10---11-10-6-8---------------|
Comments