Kittie - Paperdoll Chords & Tabs

 

Paperdoll Chords & Tabs

Kittie Chords & Tabs

Version: 4 Type: Tab 0 ratings
1 star 2 stars 3 stars 4 stars 5 stars
comments

Paperdoll Tab

Artist-Kittie
Song-Paperdoll
cd-SPIT

Intro and verse:		(repeat al lot of times)

|--------------------------------------------------
|--------------------------------------------------
|--------------------------------------------------
|-9---9---9\10-10-\11-\10-9------------------------
|-9---9---9\10-10-\11-\10-9------------------------
|-7---7---7\-8---8-\-9-\-8--7----------------------

Chorus:
[ Tab from: http://www.guitartabs.cc/tabs/k/kittie/paperdoll_tab_ver_4.html ]
|--------------------------------------------------
|--------------------------------------------------
|--------------------------------------------------
|-0\6-6-6-0--0\6-6-6-0-7-7-------------------------
|-0\6-6-6-0--0\6-6-6-0-7-7-------------------------
|-0\6-6-6-0--0\6-6-6-0-7-7-------------------------

Outro:

|--------------------------------------------------
|--------------------------------------------------
|-7-7-7-8\-7-7-7-3-3-5-5-5-7----7---7--3---5-------
|-7-7-7-8\-7-7-7-3-3-5-5-5-7----7---7--3---5----0--
|-5-5-5-6\-5-5-5-1-1-3-3-3-5----5---5--1---3----0--
|--------------------------------------------------

And thatís the whole song any corrections are always welcom please mail me on
Ragbagger14@hotmail.com
Comments