Kittie - Paperdoll Chords & Tabs

 

Paperdoll Chords & Tabs

Kittie Chords & Tabs

Version: 2 Type: Tab 0 ratings
1 star 2 stars 3 stars 4 stars 5 stars
comments

Paperdoll Tab

Song: Paperdoll
Artist: KiTTiE
Tabbed By: Colina of Lithium tabz
Email address: Lithium_tabZ@hotmail.com or colina99@Home.com

Alright this song is done in STANDARD tunning, if you play it as I'm 
writting it, and i know kittie actually drops each string down two 
steps! which i think is KRAZIE!!!! But this works for standard... 
and can be played by one guitar just fine... never the less I'm 
gonna shut up so you can play the song :) lates
[ Tab from: http://www.guitartabs.cc/tabs/k/kittie/paperdoll_tab_ver_2.html ]
Riff 1
E:---------------------------------------------------------------------
B:---------------------------------------------------------------------
G:---------------------------------------------------------------------
D:---7--7--7--8--8--10-8-----------------------------------------------
A:---5--5--5--6--6--8--6-----------------------------------------------
E:---------------------------------------------------------------------
Riff 2
E:---------------------------------------------------------------------
B:---------------------------------------------------------------------
G:---------------------------------------------------------------------
D:--------------5--------------5---------------------------------------
A:---3/4--4--4--3---3/4--4--4--3--5--5---------------------------------
E:---1/2--2--2------1/2--2--2-----3--3---------------------------------
Riff 3
E:---------------------------------------------------------------------
B:---------------------------------------------------------------------
G:---------------------------------------------------------------------
D:---5-5-5-5-5-5-5/6\5-5-5---------------------------------------------
A:---3-3-3-3-3-3-3/4\3-3-3-6-6-6-6-8-8-8-8-----------------------------
E:-------------------------4-4-4-4-6-6-6-6-----------------------------
Riff 4
E:---------------------------------------------------------------------
B:---------------------------------------------------------------------
G:---------------------------------------------------------------------
D:---------------------------------------------------------------------
A:---6--8--5-----------------------------------------------------------
E:---4--6--3-----------------------------------------------------------

Riff 1 x18(Lightly Distorted)
Riff 2 x4 (distorted Heavily)
Riff 1 x10(Lightly Distorted)
Riff 2 x4 (distorted Heavily)
Riff 3 x9 (distorted Heavily)
Riff 4 x1 (Highly distorted sounds a third of a minor lower but don't
worry about it, its all good)

Alright thats about it... any Questions/Concerns/Comments/Marrage 
propsals/Death Threats Email me at the addy's above
Comments