Kittie - Paperdoll Chords & Tabs

 

Paperdoll Chords & Tabs

Kittie Chords & Tabs

Version: 1 Type: Tab 0 ratings
1 star 2 stars 3 stars 4 stars 5 stars
comments

Paperdoll Tab

   
TUNING: tune down one full step and then drop d (C,G,C,F,A,d)


     INTRO/VERSE: (Clean Guitar)

    D|-----------------------------------------------------|
    A|-----------------------------------------------------|
    F|-9-x-x-x-x-9-x-x-x-x-9-x-x-10-x-x-x-x-10-10/12-12-10-|
    C|-9-x-x-x-x-9-x-x-x-x-9-x-x-10-x-x-x-x-10-10/12-12-10-|
    G|-7-x-x-x-x-7-x-x-x-x-7-x-x-8--x-x-x-x--8--8/10-10--8-|
    C|-----------------------------------------------------|
[ Tab from: http://www.guitartabs.cc/tabs/k/kittie/paperdoll_tab.html ]
     CHORUS: (Light Dist.)
                            
    D|--------------------------|
    A|--------------------------|
    F|--------------------------|
    C|-0/6-6-6-0--0/6-6-6-0-7-7-|
    G|-0/6-6-6-0--0/6-6-6-0-7-7-|
    C|-0/6-6-6-0--0/6-6-6-0-7-7-|

     OUTRO:
                        
    D|-----------------------|----------------------------------|
    A|-----------------------|----------------------------------|
    F|-7-7-7-8/7-7-7-3-3-5-5-|-(5)-7~-------7---7---3---5-------|
    C|-7-7-7-8/7-7-7-3-3-5-5-|-(5)-7~-------7---7---3---5---0-~-|
    G|-5-5-5-6/5-5-5-1-1-3-3-|-(3)-5~-------5---5---1---3---0-~-|
    C|-----------------------|------------------------------0-~-|



check my site:
http://go.to/mph_crash

OR
join my group:
http://devoted.to/klown
Comments