Kittie - Pain Chords & Tabs

 

Pain Chords & Tabs

Kittie Chords & Tabs

Version: 1 Type: Tab 0 ratings
1 star 2 stars 3 stars 4 stars 5 stars
comments

Pain Tab

intro:
|--------------------------------|
|--------------------------------|
|--------------------------------|
|--------------------------------|
|--------------------------------|
|1-1-1-1-1-1-222222--------------|

|--------------------------------------------|
|--------------------------------------------|
|--------------------------------------------|
|--------------------------------------------|
|1-1-1-1-1-1-222222--------------------------|
|1-1-1-1-1-1-222222--------------------------|

verse
[ Tab from: http://www.guitartabs.cc/tabs/k/kittie/pain_tab.html ]
|--------------------------------------------|
|--------------------------------------------|
|--------------------------------------------|
|--------------------------------------------|
|--0--0---0--0---0--0---0--0-----------3 h5--|
---0--0---0--0---0--0---0--0----3 h5---------|3x

----------------------------------------------|
----------------------------------------------|
----------------------------------------------|
----------------------------------------------|
---0--0---0--0---3 h5---3--5--3---------------|
---0--0---0--0----------------------5--3--5---|

Chorus
|--------------------------------------------------------|
|--------------------------------------------------------|
|--------------------------------------------------------|  (4x)
|--------------------------------------------------------|
|---0----------------------------5---5---5---2---2---2---|
|---0----------------------------5---5---5---2---2---2---|

Thanks to KittieUK for parts of the chorus!
                                      
Comments