Kittie - Into The Darkness Chords & Tabs

 

Into The Darkness Chords & Tabs

Kittie Chords & Tabs

Version: 4 Type: Tab 0 ratings
1 star 2 stars 3 stars 4 stars 5 stars
comments

Into The Darkness Tab

tab by: jose kaempffer
band: kittie
song: into darkness   
[ Tab from: http://www.guitartabs.cc/tabs/k/kittie/into_the_darkness_tab_ver_4.html ]
 Intro 
D|--------------------------------------------------------------------|
A|--------------------------------------------------------------------|
F|--------------------------------------------------------------------|
C|--------------------------------------------------------------------|
G|-14-----10----12----------------------------------------------------|
C|-12x16--8x16--10x16-------------------------------------------------|
 
riff 1
D|--------------------------------------------------------------------|
A|--------------------------------------------------------------------|
F|--------------------555---------------------------------------------|
C|-000-430------------333-let ring------------------------------------|
G|-000-430-x2--000----333---------------------------------------------|
C|-000-430------------------------------------------------------------|
   all 0 pm.
      
verse
D|--------------------------------------------------------------------|
A|--------------------------------------------------------------------|
F|--------------------------------------------------------------------|
C|-400000050400504-----------1111111111111111-------------------------|
G|-400000050400504-x9--------1111111111111111-------------------------|
C|-400000050400504-----------1111111111111111-------------------------|
  all 0 pm.
     
pre chorus
D|--------------------------------------------------------------------|
A|--------------------------------------------------------------------|
F|------555--777------------------------------------------------------|
C|-054--333--555------------------------------------------------------|
G|-054--333--555------------------------------------------------------|
C|-054----------------------------------------------------------------|
chorus.
D|--------------------------------------------------------------------|
A|--------------------------------------------------------------------|
F|--------------------------------------------------------------------|
C|--------------------------------------------------------------------|
G|-14-----10----12----------------------------------------------------|
C|-12x16--8x16--10x16-------------------------------------------------|

D|--------------------------------------------------------------------|
A|--------------------------------------------------------------------|
F|--------------------555---------------------------------------------|
C|-000-430------------333-(   let ring )-x2---------------------------|
G|-000-430-x2-then----333---------------------------------------------|
C|-000-430------------------------------------------------------------|
   pm.

bridge   
D|--------------------------------------------------------------------|
A|--------------------------------------------------------------------|
F|--------------------------------------------------------------------|
C|-----6-------2---5----6---------------------------------------------|
G|-----6-------2---5----6---------------------------------------------|
C|-----6-------2---5----6---------------------------------------------|
  all pm.

solo
D|--------------------------------------------------------------------|
A|--------------------------------------------------------------------|
F|-----------7h8p7---4-------5----------------------------------------|
C|-1/6-9-8-6-------2----2/3-------------------------------------------|
G|--------------------------------------------------------------------|
C|--------------------------------------------------------------------|

D|--------------------------------------------------------------------|
A|--------------------------------------------------------------------|
F|------555--777------------------------------------------------------|
C|-054--333--555---X2-------------------------------------------------|
G|-054--333--555------------------------------------------------------|
C|-054----------------------------------------------------------------|

D|--------------------------------------------------------------------|
A|--------------------------------------------------------------------|
F|--------------------------------------------------------------------|
C|--------------------------------------------------------------------|
G|-14-----10----12----------------------------------------------------|
C|-12x16--8x16--10x16-------------------------------------------------|
Comments