Kittie - Do You Think Im A Whore Chords & Tabs

 

Do You Think Im A Whore Chords & Tabs

Kittie Chords & Tabs

Version: 2 Type: Tab 0 ratings
1 star 2 stars 3 stars 4 stars 5 stars
comments

Do You Think Im A Whore Tab

this is the best version ive heard

song-do you think im a whore
artist-kittie
tabbed by fawn

drop tuning

"how could i fucking beleive you" part
|---------------------
|---------------------
|---------------------
|2-2-2-3-2-2-2-2-3-2-0
|2-2-2-3-2-2-2-2-3-2-0
|2-2-2-3-2-2-2-2-3-2-0

[ Tab from: http://www.guitartabs.cc/tabs/k/kittie/do_you_think_im_a_whore_tab_ver_2.html ]
"like  me......."
|-------------------------
|-------------------------
|-------------------------
|-------------------------
|-------------------------
|2p0-2p0-2-3-0-2p0-2p0-2-3

"im a whore......"
|-----------------
|-----------------
|-----------------
|2-0-2-0-2-0-2-3-4
|2-0-2-0-2-0-2-3-4
|2-0-2-0-2-0-2-3-4

yeah-its very easy.enjoy!!!!!!!!!!
Comments