Kittie - Brackish Chords & Tabs

 

Brackish Chords & Tabs

Kittie Chords & Tabs

Version: 5 Type: Tab 0 ratings
1 star 2 stars 3 stars 4 stars 5 stars
comments

Brackish Tab

Kittie, Brackish.
Tabbed by Cavan, Powerstruck15@cs.com.
  
Tuning- cgcfad

Intro
D|------11--------11-12-|
A|-9-9-9--9-9-9-9---9---|
F|----------------------|

Chorus
C|-0-1-0-1-0-1-0-1-3--|
G|-0-1-0-1-0-1-0-1-3--|
C|-0-1-0-1-0-1-0-1-3--|
[ Tab from: http://www.guitartabs.cc/tabs/k/kittie/brackish_tab_ver_5.html ]
Verse
C|------------|
G|-0-0-1-0-0--|
C|-0-0-1-0-0--|

Verse 3
F|--------|
C|-1-0----|
G|-1-0----|
C|-1-0----|

Interlude
F|---7-----7----7------9----|
C|-0---0-0----0----0-0------|
G|-0---0-0----0----0-0------|
C|-0---0-0----0----0-0------| 

:: Ultimate Guitar Archive :: 
http://www.ultimate-guitar.com 

 
Comments