Kittie - Brackish Chords & Tabs

 

Brackish Chords & Tabs

Kittie Chords & Tabs

Version: 4 Type: Tab 0 ratings
1 star 2 stars 3 stars 4 stars 5 stars
comments

Brackish Tab

Brackish    Kittie



Tabbed using www.GuitarAndBass.co.uk Transcription Tools v1.12
--------------------------------------------------------------
                                           2x
D||----------------------------------------||
A||-------------17------------17------19---||
F||*--15-15--15-----15-15--15-----15------*||
C||*--------------------------------------*||
G||----------------------------------------||
C||----------------------------------------||


                                                              
------------------------------||-----------------------------|
------------------------------||-----------------------------|
--15----15----15--15--15--15--||*----------------------------|
------------------------------||*--0-1--0-1--0-1--0-1/-6--6--|
------------------------------||---0-1--0-1--0-1--0-1/-6--6--|
------------------------------||---0-1--0-1--0-1--0-1/-6--6--|


                             3x                         
-----------------------------||------------------------|
-----------------------------||------------------------|
----------------------------*||*-----------------------|
--0-1--0-1--0-1--0-1/-6--6--*||*--0--0--1--0--0--------|
--0-1--0-1--0-1--0-1/-6--6---||---0--0--1--0--0--------|
--0-1--0-1--0-1--0-1/-6--6---||---0--0--1--0--0--------|


                                                
-----------------------|-----------------------|
-----------------------|-----------------------|
-----------------------|-----------------------|
--0--0--1--0--0--------|--0--0--1--0--0--------|
--0--0--1--0--0--------|--0--0--1--0--0--------|
--0--0--1--0--0--------|--0--0--1--0--0--------|


                                                        
------------------------||-----------------------------|
------------------------||-----------------------------|
-----------------------*||*----------------------------|
--0--0--1--0--0--------*||*--0-1--0-1--0-1--0-1/-6--6--|
--0--0--1--0--0---------||---0-1--0-1--0-1--0-1/-6--6--|
--0--0--1--0--0---------||---0-1--0-1--0-1--0-1/-6--6--|


                                                          
----------------------------|----------------------------|
----------------------------|----------------------------|
----------------------------|----------------------------|
--0-1--0-1--0-1--0-1/-6--6--|--0-1--0-1--0-1--0-1/-6--6--|
--0-1--0-1--0-1--0-1/-6--6--|--0-1--0-1--0-1--0-1/-6--6--|
--0-1--0-1--0-1--0-1/-6--6--|--0-1--0-1--0-1--0-1/-6--6--|


                                                            
-----------------------------||----------------------------|
-----------------------------||----------------------------|
----------------------------*||----------------------------|
--0-1--0-1--0-1--0-1/-6--6--*||--0-1--0-1--0-1--0-0-1/6----|
--0-1--0-1--0-1--0-1/-6--6---||--0-1--0-1--0-1--0-0-1/6----|
--0-1--0-1--0-1--0-1/-6--6---||--0-1--0-1--0-1--0-0-1/6----|


                                                                  2x
---------------------||---------------------|---------------------||
---------------------||---------------------|---------------------||
---------------------||*--------------------|--------------------*||
----------6/---1--0--||*--------------1--0--|--------------1--0--*||
----------6/---1--0--||---------------1--0--|--------------1--0---||
----------6/---1--0--||---------------1--0--|--------------1--0---||


                                                
------------------|----------------------------|
------------------|----------------------------|
------------------|----------------------------|
------------------|--0-1--0-1--0-1--0-1/-6--6--|
------------------|--0-1--0-1--0-1--0-1/-6--6--|
------------------|--0-1--0-1--0-1--0-1/-6--6--|


                                                          
----------------------------|----------------------------|
----------------------------|----------------------------|
----------------------------|----------------------------|
--0-1--0-1--0-1--0-1/-6--6--|--0-1--0-1--0-1--0-1/-6--6--|
--0-1--0-1--0-1--0-1/-6--6--|--0-1--0-1--0-1--0-1/-6--6--|
--0-1--0-1--0-1--0-1/-6--6--|--0-1--0-1--0-1--0-1/-6--6--|

Tabbed using www.GuitarAndBass.co.uk Transcription Tools v1.12
--------------------------------------------------------------
                                                          
----------------------------|----------------------------|
----------------------------|----------------------------|
----------------------------|----------------------------|
--0-1--0-1--0-1--0-1/-6--6--|--0-1--0-1--0-1--0-1/-6--6--|
--0-1--0-1--0-1--0-1/-6--6--|--0-1--0-1--0-1--0-1/-6--6--|
--0-1--0-1--0-1--0-1/-6--6--|--0-1--0-1--0-1--0-1/-6--6--|


                                                          
----------------------------|----------------------------|
----------------------------|----------------------------|
----------------------------|----------------------------|
--0-1--0-1--0-1--0-1/-6--6--|--0-1--0-1--0-1--0-1/-6--6--|
--0-1--0-1--0-1--0-1/-6--6--|--0-1--0-1--0-1--0-1/-6--6--|
--0-1--0-1--0-1--0-1/-6--6--|--0-1--0-1--0-1--0-1/-6--6--|

[ Tab from: http://www.guitartabs.cc/tabs/k/kittie/brackish_tab_ver_4.html ]
                                               
---------------------------|------------------|
---------------------------|------------------|
---------------------------|------------------|
--0-1--0-1--0-1--0-1/-6----|------------------|
--0-1--0-1--0-1--0-1/-6----|------------------|
--0-1--0-1--0-1--0-1/-6----|------------------|


                                                
-----------------------|------------------0----|
-------3----------3----|-------3----------5----|
-------5b---------5b---|-------5b--------------|
--0-------0----0-------|--0-------0----0-------|
--0-------0----0-------|--0-------0----0-------|
--0-------0----0-------|--0-------0----0-------|


                                                
-----------------------|------------------0----|
-------3----------3----|-------3----------5----|
-------5b---------5b---|-------5b--------------|
--0-------0----0-------|--0-------0----0-------|
--0-------0----0-------|--0-------0----0-------|
--0-------0----0-------|--0-------0----0-------|


                                                
-----------------------|------------------0----|
-------3----------3----|-------3----------5----|
-------5b---------5b---|-------5b--------------|
--0-------0----0-------|--0-------0----0-------|
--0-------0----0-------|--0-------0----0-------|
--0-------0----0-------|--0-------0----0-------|


                                                                   
-----------------------|------------------0----|------------------|
-------3----------3----|-------3----------5----|------------------|
-------5b---------5b---|-------5b--------------|------------------|
--0-------0----0-------|--0-------0----0-------|------------------|
--0-------0----0-------|--0-------0----0-------|------------------|
--0-------0----0-------|--0-------0----0-------|------------------|


                                                         
------------------|------------------|------------------|
------------------|------------------|------------------|
------------------|------------------|------------------|
------------------|------------------|------------------|
------------------|------------------|------------------|
------------------|------------------|------------------|


                                                         
------------------|------------------|------------------|
------------------|------------------|------------------|
------------------|------------------|------------------|
------------------|------------------|------------------|
------------------|------------------|------------------|
------------------|------------------|------------------|


                                                  
------------------||-----------------------------|
------------------||-----------------------------|
------------------||*----------------------------|
------------------||*----------------------------|
------------------||---0-1--0-1--0-1--0-1/-6--6--|
------------------||---0-1--0-1--0-1--0-1/-6--6--|


                                                          
----------------------------|----------------------------|
----------------------------|----------------------------|
----------------------------|----------------------------|
----------------------------|----------------------------|
--0-1--0-1--0-1--0-1/-6--6--|--0-1--0-1--0-1--0-1/-6--6--|
--0-1--0-1--0-1--0-1/-6--6--|--0-1--0-1--0-1--0-1/-6--6--|


                                                          
----------------------------|----------------------------|
----------------------------|----------------------------|
----------------------------|----------------------------|
----------------------------|----------------------------|
--0-1--0-1--0-1--0-1/-6--6--|--0-1--0-1--0-1--0-1/-6--6--|
--0-1--0-1--0-1--0-1/-6--6--|--0-1--0-1--0-1--0-1/-6--6--|


                                                          
----------------------------|----------------------------|
----------------------------|----------------------------|
----------------------------|----------------------------|
----------------------------|----------------------------|
--0-1--0-1--0-1--0-1/-6--6--|--0-1--0-1--0-1--0-1/-6--6--|
--0-1--0-1--0-1--0-1/-6--6--|--0-1--0-1--0-1--0-1/-6--6--|


                             3x                             
-----------------------------||----------------------------|
-----------------------------||----------------------------|
----------------------------*||----------------------------|
----------------------------*||----------------------------|
--0-1--0-1--0-1--0-1/-6--6---||--0-1--0-1--0-1--0-1/-6--6--|
--0-1--0-1--0-1--0-1/-6--6---||--0-1--0-1--0-1--0-1/-6--6--|


                                                          
----------------------------|----------------------------|
----------------------------|----------------------------|
----------------------------|----------------------------|
----------------------------|----------------------------|
--0-1--0-1--0-1--0-1/-6--6--|--0-1--0-1--0-1--0-1/-6--6--|
--0-1--0-1--0-1--0-1/-6--6--|--0-1--0-1--0-1--0-1/-6--6--|


                              
----------------------------||
----------------------------||
----------------------------||
----------------------------||
--0-1--0-1--0-1--0-1/-6--6--||
--0-1--0-1--0-1--0-1/-6--6--||

Tabbed using www.GuitarAndBass.co.uk Transcription Tools v1.12
--------------------------------------------------------------
Comments