Kittie - Brackish Chords & Tabs

 

Brackish Chords & Tabs

Kittie Chords & Tabs

Version: 2 Type: Tab 0 ratings
1 star 2 stars 3 stars 4 stars 5 stars
comments

Brackish Tab

   
KITTIE - Brackish

Tuning	C-G-C-F-G#-D

Intro 3x
D------------------------------l
G#--.0.0.0-.6-.0.0.0-.6-.0-.7--l
F------------------------------l
C------------------------------l
G------------------------------l
C------------------------------l

Last time
D-------------------l
G#--.0-.0-.0.0.0.0--l
F-------------------l
C-------------------l
G-------------------l
C-------------------l

Part 1 (8x)
D--------------l
G#-------------l
F--------------l
C---00-1-00-6--l
G---00-1-00-6--l
C---00-1-00-6--l
[ Tab from: http://www.guitartabs.cc/tabs/k/kittie/brackish_tab_ver_2.html ]
Part 2 (4x)
D---------------------------l
G#--------------------------l
F---------------------------l
C---.0.0.1.0.0~-.0.0.6.0.0--l
G---.0.0.1.0.0~-.0.0.6.0.0--l
C---.0.0.1.0.0~-.0.0.6.0.0--l

Part 1 (8x)

Part 2 (4x)

Part 1 (7x)

8th time
D-----------------l
G#----------------l
F-----------------l
C---00-1-00-6~/0--l
G---00-1-00-6~/0--l
C---00-1-00-6~/0--l

6x
D--------l
G#-------l
F--------l
C---1-0--l
G---1-0--l
C---1-0--l

Part 1 (8x)

4x
D----------------------------l
G#-----4------4----4------6--l
F----------------------------l
C---.0---.0.0---.0---.0.0----l
G---.0---.0.0---.0---.0.0----l
C---.0---.0.0---.0---.0.0----l

Part 1 (8x)

. = Mute
~ = Let Ring
/ = Slide

This version is correct.

Any requests for songs that havent been tabbed yet?
Mail me at Firebound_fish@hotmail.com
Comments