Kittie - Brackish Complete Chords & Tabs

 

Brackish Complete Chords & Tabs

Kittie Chords & Tabs

Version: 1 Type: Tab 0 ratings
1 star 2 stars 3 stars 4 stars 5 stars
comments

Brackish Complete Tab

   
Artist: Kittie
Song  : Brackish
Album : Spit

Tune all strings down one whole step, then drop d (C G C F A d)

(D)----------------------------]-------------------()Intro (w/moderate distortion)
(A)----------17---------17---18]-------------------()
(F)-15-15-15---15-15-15---15---]15-15--15-15-15-15-()
(C)----------------------------]-------------------()
(G)----------------------------]-------------------()
(C)----------------------------]-------------------()
[ Tab from: http://www.guitartabs.cc/tabs/k/kittie/brackish_complete_tab.html ]
 
[--------------------]  [-----------]Verse and Chorus (w/heavy distortion)
[--------------------]  [-----------]
[--------------------]  [-----------]
[-0-1-0-1-0-1-0-1-6-6]  [-0-0-1-0-0-]
[-0-1-0-1-0-1-0-1-6-6]  [-0-0-1-0-0-]
[-0-1-0-1-0-1-0-1-6-6]  [-0-0-1-0-0-]
 


[-------------------------------------------------]
[-------------------------------------------------]
[-------------------------------------------------]
[-6~~~--------1-0-----1-0-----1-0-----1-0-----1-0-]
[-6~~~--------1-0-----1-0-----1-0-----1-0-----1-0-]
[-------------1-0-----1-0-----1-0-----1-0-----1-0-]
              (light P.M.------------------------)

intro(part one)x3
intro(part two)x1
verse(part one)x8
verse(part two)x8
verse/chorus x8
bridge/assorted snare beats and feed back
verse/chorus

Morgan, i'm in love with you!!!!!!!!!!!! 








Comments