Kittie - Brackish Chords & Tabs

 

Brackish Chords & Tabs

Kittie Chords & Tabs

Version: 3 Type: Bass Tab 0 ratings
1 star 2 stars 3 stars 4 stars 5 stars
comments

Brackish Bass Tab

   
Arranged for a four string Drop D tuning transposed down 
one whole step (low to high  C G C F)

       PRE CHORUS
  [---------------------------]
  [---------------------------]  Repeat 8 times (until verse)
  [---------------------------]
  [--0h1--0h1--0h1--0h1-/6--6-]




                     VERSE
     she    is          not          scared    . . .
  [--------------------------------------------------]
  [--------------------------------------------------]  repeat 4 times
  [--------------------------------------------------]
  [--0---0---8---0---0r---------0---0---8---0---0----]




       CHORUS
  [---------------------------]
  [---------------------------]   Repeat 8 times
  [---------------------------]
  [--0h1--0h1--0h1--0h1-/-6-6-]



      Then repeat verse  4 times

      Then repeat chorus  8 times*
[ Tab from: http://www.guitartabs.cc/tabs/k/kittie/brackish_btab_ver_3.html ]
*On the last time of the chorus hold the last note and the slide from
the sixth fret to the first and into the first breakdown (like so)
                               
[-------------------------------------------------------------------]
[-------------------------------------------------------------------]
[-------------------------------------------------------------------]
[-0h1--0h1--0h1--0h1-/-6--6r--\--1-0--1-0--1-0--1-0--1-0--1-0--1-0--]


      Then repeat chorus  8 times (hold last note)
             

                Second Breakdown
[-------------------------------------------------------]
[-------------------------------------------------------]   repeat 4 times
[------3------------3-3r--------3-------------3-0-3/5---]
[--0-------0r--0--0--------0------0----0--0-------------]


      Then drum solo

      Then repeat chorus 20 times and fade


That's it, awesome song

h= hammer on
r= let note ring or hold note
/= slide up to the next note
\= slide down to next note
Comments