Kittie - Brackish Chords & Tabs

 

Brackish Chords & Tabs

Kittie Chords & Tabs

Version: 2 Type: Bass Tab 0 ratings
1 star 2 stars 3 stars 4 stars 5 stars
comments

Brackish Bass Tab

Kittie - Brackish

I'm not sure if this is right at all..... It sounds ok, but i'm just not 
sure. Since the song is quite fast, you might wanna tune up the lower A to a 
C, and then f.e. play 0-1--0-1--0-1 instead of 3-4--3-4--3-4 in the first 
riff. Please e-mail me about corrections! And also e-mail me if you think the 
tab is correct!  Thanx... 

Martin (MAMeingast@aol.com)

Riff 1 x8

G   ------------------
D   ------------------
A   ------------------
D   ---------------3-3
A   3-4--3-4--3-4-----

Riff 2 x4

A   -----------------------------------------------------------------
D   -----------------------------------------------------------------
A   3--3--5--3--3----- let the note ring -3--3--5--3--3----- don't let the note ring

Riff 1 x8
[ Tab from: http://www.guitartabs.cc/tabs/k/kittie/brackish_btab_ver_2.html ]
A   ------------------
D   ---------------3-3
A   3-4--3-4--3-4-----

Riff 2 x4

A   -----------------------------------------------------------------
D   -----------------------------------------------------------------
A   3--3--5--3--3----- let the note ring -3--3--5--3--3----- don't let the note ring

Riff 1 x8

A   ------------------
D   ---------------3-3  <--let the note ring until the next one is 
A   3-4--3-4--3-4-----     played in the following riff

Riff 3 x8

A   ----
D   ----
A   4--3

Riff 1 x8

A   ------------------
D   ---------------3-3  <--let the note ring until the next one is 
A   3-4--3-4--3-4-----     played in the following riff

Riff 4 x8

A   ------------
D   ------------
A   3------3---3

break

Riff 1 until the end

A   ------------------
D   ---------------3-3
A   3-4--3-4--3-4-----
Comments