Kitchie Nadal - Youre Worthy Chords & Tabs

 

Youre Worthy Chords & Tabs

Kitchie Nadal Chords & Tabs

Version: 1 Type: Tab 0 ratings
1 star 2 stars 3 stars 4 stars 5 stars
comments

Youre Worthy Tab

   
You're Worthy
by: Kitchie Nadal
Transcribed by: Nathaniel Mercado
Email:Stryder_kaskasero@yahoo.com

ito ang kaunaunahang tab na ginawa ko, sana magustuhan nyo 
kaso hndi ito 100% perfect kung may mali paki email nlng me
at pki Rate nrin itong tab..........
pra nga pla ito sa bratinela naming vocalist 
na si Lara Babula(pa parap pa pa luv ko toh!) 
Favorite nya daw itong song na toh! kya ito 
ung una kong ginawa, sana magustuhan mo ito........
salamat din sa sumusuporta sa musikang pilipino lalu na kila
kitchie Nadal at sa parokya ni edgar mabuhay tayo!!
salamat din sa mga kabanda ko Halo-halo band Your d'Best
(tugtugan nman tyo)

Stanza Chord
   Am        Em
e---0---------0--------||
A---1---------0--------||
D---2---------0--------||  4x
G---2---------2--------||
B---0---------2--------||
E---x---------0--------||  


Refrain:
gtr 1
   B7         c        B7         c
e---2---------3---------2---------3---------||
A---4---------5---------4---------5---------||
D---2---------5---------2---------5---------||
G---4---------5---------4---------5---------||
B---2---------3---------2---------3---------||
E---x---------x---------x---------x---------||

   B7         c        B7        B7
e---2---------3---------2---------2---------||
A---4---------5---------4----------4--------||
D---2---------5---------2-----------2-------||
G---4---------5---------4------------4------||
B---2---------3---------2-------------2-----||
E---x---------x---------x-------------------||

gtr 2
    B7        c        B7         c
e---------2---------3---------2---------3---||
A-------------------------------------------||
D-------------------------------------------||
G-----4---------5---------4---------5-------||
B---2---2-----3---3-----2---2-----3---3-----||
E-------------------------------------------||

    B7        c        B7        B7
e---------2---------3---------2---2---------||
A----------------------------------4--------||
D-----------------------------------2-------||
G-----4---------5---------4----------4------||
B---2---2-----3---3-----2---2---------2-----||
E-------------------------------------------||
[ Tab from: http://www.guitartabs.cc/tabs/k/kitchie_nadal/youre_worthy_tab.html ]
Chorus
   Em         D        C9         D
e---0---------2---------3---------2---------||
A---0---------3---------3---------3---------||
D---0---------2---------0---------2---------||  4x
G---2---------0---------2---------0---------||
B---2---------X---------3---------x---------||
E---X---------X---------x---------x---------||

(Repeat Stanza Chords)
(Repeat Refrain Chords)
(Repeat Chorus Chords)

Bridge 
    E         c
e---0---------0---------||
A---0---------1---------||
D---1---------0---------||  4x
G---2---------2---------||
B---2---------3---------||
E---0---------x---------||
  ah....ah...ah......
   E         c
e---0---------0---------||
A---0---------1---------||
D---1---------0---------||  4x
G---2---------2---------||
B---2---------3---------||
E---0---------x---------||
  If all else fail..........

Adlib

e----------------12\10--10\8--7\5--5\3--3-2-0----------------------||
A---10-10-10h12----------------------------------------------------||
D-----------------------------------------------9-9-9h11-11-11-----||
G------------------------------------------------------------------||
B------------------------------------------------------------------||
E------------------------------------------------------------------||

e----------------12--12--------------------------------------------||
A--------------12--12------8/10-10-10\8-8-8\7-7-7\5-5-5/3-3-3/5-0--||
D---12-/-14--------------------------------------------------------||
G------------------------------------------------------------------||
E------------------------------------------------------------------||

e-------------------------||
A---12\10-10/12-----------||
D---------------12\9-11---||
G-------------------------||
B-------------------------||
E-------------------------||

Outro
   Em         D        C9         D
e---0---------2---------3---------2---------||
A---0---------3---------3---------3---------||
D---0---------2---------0---------2---------|| 
G---2---------0---------2---------0---------||
B---2---------X---------3---------x---------||
E---X---------X---------x---------x---------||

   Em         D        
e---0---------2--------||
A---0---------3--------||
D---0---------2--------||  
G---2---------0--------||
B---2---------X--------||
E---X---------X--------||

_______End________

| /  slide up
| \  slide down
| h  hammer-on


Mahal parin kita kahit anong mangyari............


'deMon'=> and -=Angel=-   ....piz....
Comments