Kitchie Nadal - Bulong Chords & Tabs

 

Bulong Chords & Tabs

Kitchie Nadal Chords & Tabs

Version: 3 Type: Tab 0 ratings
1 star 2 stars 3 stars 4 stars 5 stars
comments

Bulong Tab

   
-------------------------------------------------------------------------------
			     Bulong - Kitchie Nadal
-------------------------------------------------------------------------------
Tabbed by: mitch (michael)
Email: mitch_row1_37@yahoo.com

Tuning:Standard Tuning

prang tama...tignan nyo nlng kng tama nga...

Intro
E|-2---4---7---2-------------------|
B|-3---5---8---3-------------------|
G|-2---4---7---2-------------------|\
D|---------------------------------|/2x (listen nlng sa struming)
A|---------------------------------|
E|---------------------------------|
[ Tab from: http://www.guitartabs.cc/tabs/k/kitchie_nadal/bulong_tab_ver_3.html ]
Verse
E|-2-x--4-x--7-x--2-x--------------|
B|-3-x--5-x--8-x--3-x--------------|
G|-2-x--4-x--7-x--2-x--------------|tigisang bagsak lng tpos Mute ung ibang part ng struming
D|---x----x----x----x--------------|2x
A|---x----x----x----x--------------|
E|---x----x----x----x--------------|

Chorus
E|-2---2---2---2---3---2-----------|
B|-3---2---2---2---3---3-----------|
G|-2---0---0---0---4---2-----------|2x
D|-----2---0---2---5---------------|
A|-----3---2---3---5---------------|
E|-----0---3---0---3---------------|
(Repeat Intro)

Bridge
E|-0--2---2---2---2---2---2--------|
B|-0--2---2---2---2---2---3--------|
G|-1--0---0---0---0---0---2--------|
D|-2--0---2---0---2---0------------|
A|-2--2---3---2---3---2------------|
E|-0--3---0---3---0---3------------|

Intro (Interlude)
Chorus 2x
Intro 3x

| /  slide up
| \  slide down
| h  hammer-on
| p  pull-off
| ~  vibrato
| +  harmonic
| x  Mute note
===============================================================================
Comments