Kitchie Nadal - Bulong Chords & Tabs

 

Bulong Chords & Tabs

Kitchie Nadal Chords & Tabs

Version: 2 Type: Tab 0 ratings
1 star 2 stars 3 stars 4 stars 5 stars
comments

Bulong Tab

Kitchie Nadal : Bulong
power chords ung ginawa ko kz mas maganda tignan...

Standard Lng ung tuning nya

|---------------------------|
|-7----9----12----7---------|
|-7----9----12----7---------|
|-5----7----10----5---------|
|---------------------------|
|---------------------------|
pakinggan nyong mabuti ung songs pra makuha nyo kz kinuha ko to sa struming
kya masmaganda kung papakinggan nyo pren ung song...

|---------------------------|
|-7-77--9-99--12-12-9-7-----|
|-7-77--9-99--12-12-9-7-----|
|-5-55--7-77--10-10-7-5-----|
|---------------------------|
|---------------------------|

Ikaw ba'y nalulungkot?
Nababalot ba ng poot
Maraming hinanakit sa mundo
Di alam anong gagawin
Kundi ubusin ang oras sa gin
Akala mo iya'y may mararating

chorus:
[ Tab from: http://www.guitartabs.cc/tabs/k/kitchie_nadal/bulong_tab_ver_2.html ]
|---------------------------|
|-7----9----12----7---------|
|-7----9----12----7---------| (paulet ulet lng toh! basta pakinggan
|-5----7----10----5---------|  nyo ung music)
|---------------------------|
|---------------------------|

Hoy, kaibigan ko
Pakinggan mong mga bulong sa 'yo
Ito'y di galing sa mundo
Patungo sa pangakong paraiso

|---------------------------|
|-7-77--9-99--12-12-9-7-----|
|-7-77--9-99--12-12-9-7-----|
|-5-55--7-77--10-10-7-5-----|
|---------------------------|
|---------------------------|

Nasaan nang talino mo?
Diskarte kamo ng kano
Apakan ng lahat pati paa mo
Minsan ang kagitingan ay
Wala sa bigat ng pinapasan
Sa pagsubok pagharap ang kabiguan

w8 nyo lng ung solo ni2 kz winiwidow ko pa ehh!...email nyo ko kung may gusto kaung 
nrtmac@yahoo.com sa frendster....•princess23•
Comments