Kisschasy - Water On A Stove Chords & Tabs

 

Water On A Stove Chords & Tabs

Kisschasy Chords & Tabs

Version: 1 Type: Tab 0 ratings
1 star 2 stars 3 stars 4 stars 5 stars
comments

Water On A Stove Tab

Artist: Kisschasy
Title: Water on a stove
Album: United Paper People
Track: 7

Tabbed by: Kihsien

Standard Tuning : EADGBe

~ Let Ring


Intro
e|------0------0------0-------------------0------0------0-------------|
B|------1------1------1---------1---------1------1------1---------1---|
G|------2------2------2-------0-----------2------2------2-------0-----|
D|--3-3----2-2----0-0--------2-2------3-3----2-2----0-0--------2-2----|
A|-----------------------0-0-------------------------------3-3--------|
E|--------------------------------------------------------------------|

Repeat twice
[Singing comes in on second time]
My hair weeps for air, a shower and a comb.
She's clean enough for me and looks good in yellow.
[Drum and Bass Comes in]

e|------0------0------0-------------------0------0------0-----0-----0---|
B|------1------1------1---------1---------1------1------1---------------|
G|------2------2------2-------0-----------2------2------2----2-2---2-2--|
D|--3-3----2-2----0-0--------2-2------3-3----2-2----0-0-----2-----2-----|
A|-----------------------0-0-------------------------------0-----0------|
E|----------------------------------------------------------------------|

Im dissoved in alcohol but she's in perfect care.
The queen of my worst dreams and I'm her biggest

Pre-Chorus
[Builts up slowly]
e|---------|
B|---------|
G|---------|
D|---------|
A|-3333----|
E|-1111----|
Nightmare......

[Distortion comes in]

Chorus
e|-----------------------------------------------------------|
B|-----------------------------------------------------------|
G|-----------------------------------------------------------|
D|-----------------------------------------------------------|
A|--7777-77--7777-77--5555-55--55555555--33333333~-----------|
E|--5555-55--4444-44--3333-33--22222222--11111111~-----------|

e|----0---0---0---0----0--------|
B|----1---1---1---1-------------|
G|---2---2---2---2----2---------|
D|--3---2---0--------2----------|
A|--------------0---0-----------|
E|------------------------------|

Now I'm Counting Black Sheep to reacquaint myself with sleep
and when the storm cloud comes you're still my light and you still
shine...... yellow...

Repeat whole Intro
Watch days evaporate like water on a stove.
I find it easier to get blood out of stone.
I wrote this song slow to make it go mainstream
so all the people know that you're my favourite

Pre-Chorus
[Builts up slowly]
e|---------|
B|---------|
G|---------|
D|---------|
A|-3333----|
E|-1111----|
bad...scene...
[ Tab from: http://www.guitartabs.cc/tabs/k/kisschasy/water_on_a_stove_tab.html ]
2nd Chorus
e|----------------------------------------------------------------------------|
B|----------------------------------------------------------------------------|
G|----------------------------------------------------------------------------|
D|----------------------------------------------------------------------------|
A|--7777-77--7777-77--5555-55--55555555--333333333333----55-xx-5-5-x5-33333333|
E|--5555-55--4444-44--3333-33--22222222--111111111111----22-xx-2-2-x2-11111111|

e|------------------------------------------------|
B|------------------------------------------------|
G|------------------------------------------------|
D|------------------------------------------------|
A|--55-xx-5-5-x5-33333333---55-xx-5-5-x5-33333333-|
E|--22-xx-2-2-x2-11111111---22-xx-2-2-x2-11111111-|

Now I'm Counting Black Sheep to reacquaint myself with sleep
and when the storm cloud comes you're still my light and you still
shine...... yellow...

Interlude
e|----0----0-----0-----0---|
B|---3-3--3-3---3-3---1-1--|
G|-------------------------|
D|-------3-----4-----3-----|
A|--3----------------------|
E|-------------------------|

Play 10 times.
I can't get thoughts like this on a Monday.
I'll think I'll sleep in anyway.

Pre-Chorus
[Builts up slowly]
e|-----------------|
B|-----------------|
G|-----------------|
D|-----------------|
A|-3333-4444-3333--|
E|-1111-2222-1111--|
Hey......

[Violin comes in]
[Played beneath the violin]
e|---------------------|
B|---------------------|
G|---------------------|
D|---------------------|
A|--7---7---5---5---3~-|
E|--5---4---3---2---1~-|

Last Chorus
e|------------------------------------------------|
B|------------------------------------------------|
G|------------------------------------------------|
D|------------------------------------------------|
A|--7777-77--7777-77--5555-55--5555-55------------|
E|--5555-55--4444-44--3333-33--2222-22--3-4-------|
Now I'm Counting Black Sheep to reacquaint myself with sleep
and when the storm cloud.

e|----------------------------------------------------------------------|
B|----------------------------------------------------------------------|
G|----------------------------------------------------------------------|
D|----------------------------------------------------------------------|
A|--7777-77--7777-77--5555-55--55555555--333333333333----55-xx-5-5-x5-3~|
E|--5555-55--4444-44--3333-33--22222222--111111111111----22-xx-2-2-x2-1~|
I'm Counting Black Sheep to reacquaint myself with sleep
and when the storm cloud comes you're still my light and you still
shine...yellow... And you shine... Yellow......

End
e|----0---0---0---0----0--------|
B|----1---1---1---1-------------|
G|---2---2---2---2----2---------|
D|--3---2---0--------2----------|
A|--------------0---0-----------|
E|------------------------------|




If you have any comments, please e-mail me at kihsien_@hotmail.com
Otherwise Enjoy. =)
Rate this tab.
Comments