Kisschasy - Face Without A Name Chords & Tabs

 

Face Without A Name Chords & Tabs

Kisschasy Chords & Tabs

Version: 1 Type: Tab 0 ratings
1 star 2 stars 3 stars 4 stars 5 stars
comments

Face Without A Name Tab

Riff 1
|-----------------------------------------------------------------------|
|-----------------------------------------------------------------------|
|--44-5-4-5-4-5-4-5-44-5-4-5-4-5-4-5-44-5-4-5-4-5-4-5-44-5-4-5-4-5-4-5--|
|--55-5-5-5-5-5-5-5-55-5-5-5-5-5-5-5-55-5-5-5-5-5-5-5-55-5-5-5-5-5-5-5--|
|--XX-X-X-X-X-X-X-X-XX-X-X-X-X-X-X-X-33-3-3-3-3-3-3-3-00-0-0-0-0-0-0-0--|
|--33-3-3-3-3-3-3-3-33-3-3-3-3-3-3-3------------------------------------|

Riff 2
|-------------------------------------|
|-------------------------------------|
|--44-5-4-5-4-5-4-5-44-5-4-5-4-5-4-5--|
|--55-5-5-5-5-5-5-5-55-5-5-5-5-5-5-5--|
|--XX-X-X-X-X-X-X-X-XX-X-X-X-X-X-X-X--|
|--33-3-3-3-3-3-3-3-33-3-3-3-3-3-3-3--|
[ Tab from: http://www.guitartabs.cc/tabs/k/kisschasy/face_without_a_name_tab.html ]
Riff 3 
|-------------------------------------------|------------------------|
|--33----33----33----33------3---3---3---3--|--33----33----33----33--|
|--00----00----00----00------0---0---0---0--|--00----00----00----00--|
|--00----00----00----00------0---0---0---0--|--00----00----00----00--|
|--22----22----33----33---------------------|--22----22----33----33--|
|--------------------------33--33--33--33---|------------------------|

Back to Riff 1 + 2

Riff 4
|-------------------------------------------|-------------------------------------------------------|
|--33----33----33----33------3---3---3---3--|--33----33----33----33----3-3-3-3-3-3-3-3-3-3-3-3-3-3--|
|--00----00----00----00------0---0---0---0--|--00----00----00----00----0-0-0-0-0-0-0-0-0-0-0-0-0-0--|
|--00----00----00----00------0---0---0---0--|--00----00----00----00----2-2-2-2-2-2-2-0-0-0-0-0-0-0--|
|--22----22----33----33---------------------|--22----22----33----33----0-0-0-0-0-0-0-3-3-3-3-3-3-3--|
|--------------------------33--33--33--33---|-------------------------------------------------------|

Riff 5 
|-----------------------------------|
|----3---3---3---3---3---3---3---3--|
|----0---0---0---0---0---0---0---0--|
|----0---0---0---0-22--22----0---0--|
|----------33--33--00--00--33--33---|
|--33--33---------------------------|

Lead for Riff 5
e|--7-------|--8-7-------|
B|----10-8--|------10-8--|
G|----------|------------|
Comments