Kiss Of Death - Rejected Chords & Tabs

 

Rejected Chords & Tabs

Kiss Of Death Chords & Tabs

Version: 1 Type: Tab 0 ratings
1 star 2 stars 3 stars 4 stars 5 stars
comments

Rejected Tab

Rejected by Kiss of Death

Tune bottom string to d the rest of the strings are normally tuned.

Tabbed by Tim Carter (Lead guitarist) Sean Sandercock (Rythmn guitarist Triangular
shaped head)

Intro:

--------------------------------------------------------
--------------------------------------------------------
--------------------------------------------------------
-0-0-0-0-0-0-0-0-0-3-0-3-0-0-0-0-0-0-0-0-0-3-0-3-0-0-0-6
-0-0-0-0-0-0-0-0-0-3-0-3-0-0-0-0-0-0-0-0-0-3-0-3-0-0-0-6
-0-0-0-0-0-0-0-0-0-3-0-3-0-0-0-0-0-0-0-0-0-3-0-3-0-0-0-6

P.M.....................................................

-----------------------------------
-----------------------------------
-----------------------------------
-0-0-0-3-0-3-0-0-0-0-0-0-0-0-0-12/0
-0-0-0-3-0-3-0-0-0-0-0-0-0-0-0-12/0
-0-0-0-3-0-3-0-0-0-0-0-0-0-0-0-12/0

P.M................................

Verse riff:

--------------------------
--------------------------
-0-0-0-3-0-0-0-5-0-0-0-6/5
-0-0-0-3-0-0-0-5-0-0-0-6/5
-0-0-0-3-0-0-0-5-0-0-0-6/5

P.M.......................
[ Tab from: http://www.guitartabs.cc/tabs/k/kiss_of_death/rejected_tab.html ]
Chorus riff:
------------------------------------------------
------------------------------------------------
------------------------------------------------
-3-3-3-3-3-3-3-3-3-3-3-3-5-5-5-5-5-5-5-5-5-5-5-5
-3-3-3-3-3-3-3-3-3-3-3-3-5-5-5-5-5-5-5-5-5-5-5-5
-3-3-3-3-3-3-3-3-3-3-3-3-5-5-5-5-5-5-5-5-5-5-5-5

------------------------------------------------
------------------------------------------------
------------------------------------------------
-8-8-8-8-8-8-8-8-8-8-8-8-7-7-7-7-7-7-7-7-7-7-7-7
-8-8-8-8-8-8-8-8-8-8-8-8-7-7-7-7-7-7-7-7-7-7-7-7
-8-8-8-8-8-8-8-8-8-8-8-8-7-7-7-7-7-7-7-7-7-7-7-7

Bridge:

-----------------------------------------------------
-----------------------------------------------------
-----------------------------------------------------
0-0-0--0-0-0------0-0-0--0-0-0--3--0-0-0--0-0-0--12/0
0-0-0--0-0-0------0-0-0--0-0-0--3--0-0-0--0-0-0--12/0
0-0-0--0-0-0------0-0-0--0-0-0--3--0-0-0--0-0-0--12/0

Repeat all exept bridge and then into solo which cannot be tabbed 
because it is improvised.

Lyrics:

Intro

Verse 1:

I woke up in the morning,
My friends were having a nice life,
My girlfriend had just dumped me,
I needed some advice.

Chorus:

My life was being dissected,
And somehow I knew everyone meant it,
My life was really hectic,
So basically I am rejected.

Bridge

Verse 2:

The first time that I was offered heroine,
I said no and got it out of my head,
A week later they asked me the same thing,
I took it and now I'm dead!

Chorus

Solo 
Comments