Kiss - Without You Chords & Tabs

 

Without You Chords & Tabs

Kiss Chords & Tabs

Version: 1 Type: Tab 0 ratings
1 star 2 stars 3 stars 4 stars 5 stars
comments

Without You Tab

   
######################
# Kiss - Without You #
######################

Song should be turn down two frets
but this version is without tuning
This the Korean Group kiss not the American

Intro:
|-0h2-0-----0-2---|-5---------------|-2---0---0-2-----|-----------------|
|-3-----3---------|-----2-----------|-3-----3---------|-3-----2---------|
|-2-------2-------|-------2---------|-0---------------|-0---------------|
|-0---------------|-----------------|-----------------|-2---------------|
|-----------------|-----------------|-----------------|-0---------------|
|-----------------|-2---------------|-0---------------|-----------------|
  1 + 2 + 3 + 4 +   1 + 2 + 3 + 4 +   1 + 2 + 3 + 4 +   1 + 2 + 3 + 4 +  

Verse 1:
 D2                 F#7               Em7               Asus  A
||---0---0---0-----|---0---0---0-----|---0---0---0-----|---0---0---0-----|
||---3---3---3-----|---2---2---2-----|---3---3---3-----|---3---2---2-----|
||---2---2---2-----|---2---2---2-----|---0---0---0-----|---2---2---2-----|
||-0-----0---------|-----------------|-----------------|-----------------|
||-----------------|-----------------|-----------------|-0-----0---------|
||---------------0-|-2-----2-------2-|-0-----0-------0-|-----------------|
|  1 + 2 + 3 + 4 +   1 + 2 + 3 + 4 +   1 + 2 + 3 + 4 +   1 + 2 + 3 + 4 +  
|
|guitar 2
||-----------------|-----------------|-----------------|--------------(5)|
||-----------------|-----------------|-----------------|---0-3-2---3-2(5)|
||-----------------|-----------------|---------------0-|0/2------0-2-2/7-|
||-----------------|-----------------|-----------------|---------------7-|
||-----------------|-----------------|-----------------|-0---------------|
||-----------------|-----------------|-----------------|-----------------|
  1 + 2 + 3 + 4 +   1 + 2 + 3 + 4 +   1 + 2 + 3 + 4 +   1 + 2 + 3 + 4 +  


  D2                 F#7               Em7               Asus  A
||---0---0---0-----|---0---0---0-----|---0---0---0-----|---0---0---0-----|
||---3---3---3-----|---2---2---2-----|---3---3---3-----|---3---2---2-----|
||---2---2---2-----|---2---2---2-----|---0---0---0-----|---2---2---2-----|
||-0-----0---------|-----------------|-----------------|-----------------|
||-----------------|-----------------|-----------------|-0-----0---------|
||---------------0-|-2-----2-------2-|-0-----0-------0-|-----------------|
|  1 + 2 + 3 + 4 +   1 + 2 + 3 + 4 +   1 + 2 + 3 + 4 +   1 + 2 + 3 + 4 +  
|
|guitar 2
||-----------------|-----------------|-----------------|-----------------|
||-----------------|-----------------|-----------------|5/8--8-7---------|
||-----------------|-----------------|-----------------|---7-------7---9-|
||-----------------|-----------------|-----------------|-----------------|
||-----------------|-----------------|-----------------|-----------------|
||-----------------|-----------------|-----------------|-----------------|
  1 + 2 + 3 + 4 +   1 + 2 + 3 + 4 +   1 + 2 + 3 + 4 +   1 + 2 + 3 + 4 +  


 Em7               Asus   A          Em7               Asus   A
|---0---0---0-----|---0---0---0-----|---0---0---0-----|---0---0---0-----|
|---3---3---3-----|---3---2---2-----|---3---3---3-----|---3---2---2-----|
|---0---0---0-----|---2---2---2-----|---0---0---0-----|---2---2---2-----|
|-----------------|-----------------|-----------------|-----------------|
|-----------------|-0-----0-------0-|-----------------|-0-----0-------0-|
|-0-----0-------0-|-----------------|-0-----0-------0-|-----------------|
  1 + 2 + 3 + 4 +   1 + 2 + 3 + 4 +   1 + 2 + 3 + 4 +   1 + 2 + 3 + 4 +  

[ Tab from: http://www.guitartabs.cc/tabs/k/kiss/without_you_tab.html ]
Chorus:
  D                 A/C#              G/B               Asus   A
||---0---0---0-----|---0---0---0-----|---0---0---0-----|---0---0---0-----|
||---3---3---3-----|---2---2---2-----|---2---2---2-----|---3---2---2-----|
||---2---2---2-----|---2---2---2-----|---0---0---0-----|---2---2---2-----|
||-0-----0-------0-|-----------------|-----------------|-----------------|
||-----------------|-4-----4-------0-|-2-----2-------2-|-0-----0-------0-|
||-----------------|-----------------|-----------------|-----------------|
|  1 + 2 + 3 + 4 +   1 + 2 + 3 + 4 +   1 + 2 + 3 + 4 +   1 + 2 + 3 + 4 +  
|
|guitar 2
||-----------------|-9---------------|-----------------|-----------------|
||-----------------|--10-11-10-------|-12--10-9--------|-----------------|
||-----------------|-----------------|-----------------|-----------------|
||-----------------|-----------------|-----------------|-----------------|
||-----------------|-----------------|-----------------|-----------------|
||-----------------|-----------------|-----------------|-----------------|
  1 + 2 + 3 + 4 +   1 + 2 + 3 + 4 +   1 + 2 + 3 + 4 +   1 + 2 + 3 + 4 +  


  D                 A/C#              G/B               Asus   A           First Ending
||---0---0---0-----|---0---0---0-----|---0---0---0-----|---0---0---0-----||-----------------|--------------|
||---3---3---3-----|---2---2---2-----|---2---2---2-----|---3---2---2-----||-------3---------|--------------|
||---2---2---2-----|---2---2---2-----|---0---0---0-----|---2---2---2-----||-----0-----------|--------------|
||-0-----0-------0-|-----------------|-----------------|-----------------||---0-------------|--------------|
||-----------------|-4-----4-------0-|-2-----2-------2-|-0-----0-------0-||-----------------|--------------|
||-----------------|-----------------|-----------------|-----------------||-0---------------|--------------|
|  1 + 2 + 3 + 4 +   1 + 2 + 3 + 4 +   1 + 2 + 3 + 4 +   1 + 2 + 3 + 4 +   1 + 2 + 3 + 4 +   Rest...
|
|guitar 2                                                These are all harmonics.  The 27 is a fake where
|                                                        you hold the 3rd fred on the B and then hold your 
|                                                        index finger 24 frets above that to "fake" a 
|                                                        harmonic
||-----------------|-----------------|-----------------|-----------------|-----------------|-27------------|
||-----------------|-----------------|-----------------|-----------------|-------------5---|---------------|
||-----------------|-----------------|-----------------|-----------------|-----------7---7-|---------------|
||-----------------|-----------------|-----------------|-----------------|-----------------|---------------|
||-----------------|-----------------|-----------------|-----------------|-----------------|---------------|
||-----------------|-----------------|-----------------|-----------------|-----------------|---------------|
  1 + 2 + 3 + 4 +   1 + 2 + 3 + 4 +   1 + 2 + 3 + 4 +   1 + 2 + 3 + 4 +   1 + 2 + 3 + 4 +   1 + 2 + 3 + 4 +


Second Time (Bridge)
 Bm                Bm/A#             Bm/A              Bm/G
|---2---2---2-----|---0---0---0-----|---2---2---2-----|---0---0---0-----|-------0---------|-------0--------|
|---3---3---3-----|---3---3---3-----|---3---3---3-----|---3---3---3-----|-----3-----------|-----2----------|
|---4---4---4-----|---4---4---4-----|---4---4---4-----|---4---4---4-----|---2-------------|---2------------|
|-----------------|-----------------|-----------------|-----------------|-----------------|----------------|
|-2-----2-------2-|-1-----1-------1-|-0-----0-------0-|-----------------|-0---------------|-0--------------|
|-----------------|-----------------|-----------------|-3-----3-------3-|-----------------|----------------|
  1 + 2 + 3 + 4 +   1 + 2 + 3 + 4 +   1 + 2 + 3 + 4 +   1 + 2 + 3 + 4 +   1 + 2 + 3 + 4 +   1 + 2 + 3 + 4 + 
                                                                         

Chorus 2x
Comments