Kiss - We Are One Chords & Tabs

 

We Are One Chords & Tabs

Kiss Chords & Tabs

Version: 1 Type: Tab 0 ratings
1 star 2 stars 3 stars 4 stars 5 stars
comments

We Are One Tab

   
#-----------------------------PLEASE NOTE--------------------------------#
# This file is the author¥s own work and represents their interpretation # 
# of the song. You may only use this file for private study, scholarship,#
# or research.                                                           #
#------------------------------------------------------------------------#

WE ARE ONE (from the KISS CD "PSYCHO CIRCUS")
--------------------
Transcribed by Emil Ortenmark, emil@kissasylum.com

Tuned down 1/2-step

Comments: Pretty easy. Simple chording in the verse and more of the same in
the chorus. Add some 12-string sprinkles and a nice outro-riff and there¥s
a song for you.


Key:
/    = slide up
\    = slide down
b    = bend (whole step)
b^   = bend (1/2 step)
b^^  = bend (1 1/2 steps)
pb   = pre-bend
r    = release-bend
t^   = tap with righthand finger
h    = hammer-on
p    = pull-off
~    = Vibrato
*    = Natural Harmonic
#(#) = Trill
**   = Artificial Harmonic
x    = Dead notes (no pitch)
P.M. = Palm mute (- -> underneath indicates which notes)
(\)  = Dive w\bar
(/)  = Release w\bar
Tp   = Tap w\plectrum 


Riff 1a (clean electric)
                                                                                 
Eb|-------------------------------------------------------------------|
Bb|-7----7--7-7--7-7--7----7----7--7-7--7-7--7----5----5--5-5--5-5--5-|
Gb|-8----8--8-8--8-8--8----6----6--6-6--6-6--6----6----6--6-6--6-6--6-|
Db|-9----9--9-9--9-9--9----9----9--9-9--9-9--9----6----6--6-6--6-6--6-|
Ab|-------------------------------------------------------------------|
Eb|-------------------------------------------------------------------|


                                                                                   
Eb|-------------------------------------------------------------------|
Bb|--2----2--2-2--2-2--2----------------------------------------------|
Gb|--3----3--3-3--3-3--3----------------------------------------------|
Db|--4----4--4-4--4-4--4----------------------------------------------|
Ab|-------------------------------------------------------------------|
Eb|-------------------------------------------------------------------|


Riff 1b (clean electric)
                                                                             
Eb|-------------------------------------------------------------------|
Bb|-7----7--7-7--7-7--7----7----7--7-7--7-7--7----0----0--0-0--0-0--0-|
Gb|-8----8--8-8--8-8--8----6----6--6-6--6-6--6----1----1--1-1--1-1--1-|
Db|-9----9--9-9--9-9--9----9----9--9-9--9-9--9----2----2--2-2--2-2--2-|
Ab|-------------------------------------------------------------------|
Eb|-------------------------------------------------------------------|


                                                                                   
Eb|-------------------------------------------------------------------|
Bb|--2----2--2-2--2-2--2----------------------------------------------|
Gb|--3----3--3-3--3-3--3----------------------------------------------|
Db|--4----4--4-4--4-4--4----------------------------------------------|
Ab|-------------------------------------------------------------------|
Eb|-------------------------------------------------------------------|



Riff 2 (overdriven guitar)
                                                                                
Eb|-------------------------------------------------------------------|
Bb|-------------------------------------------------------------------|
Gb|--4----------------------------------------------------------------|
Db|--4---------------4---------------2---------------4----------------|
Ab|--2---------------4---------------2---------------4----------------|
Eb|------------------2---------------0---------------2----------------|



Riff 3 (12-string acoustic)
                                                                         
Eb|-------------------------------------------------------------------|
Bb|------------------------7-----7----7--7-7--7-7--7------------------|
Gb|---9----9--9-8---8--8/9-------6----6--6-6--6-6--6------------------|
Db|-------------------------------------------------------------------|
Ab|-------------------------------------------------------------------|
Eb|-------------------------------------------------------------------|
   <- - - - - 3x - - - - - ->



[ Tab from: http://www.guitartabs.cc/tabs/k/kiss/we_are_one_tab.html ]
Riff 4 (clean electric)
                                                                                
Eb|-------------------------------------------------------------------|
Bb|--7---7-----7---7-----5---5-----2---2------------------------------|
Gb|--8---8-----6---6-----4---4-----3---3------------------------------|
Db|--9---9-----9---9-----6---6-----4---4------------------------------|
Ab|-------------------------------------------------------------------|
Eb|-------------------------------------------------------------------|







Riff 5 (overdriven guitar)
                                                                                
Eb|-------------------------------------------------------------------|
Bb|-------------------------------------------------------------------|
Gb|--4--4-------------------------------------------------------------|
Db|--4--4------------4--4------------2--------------------------------|
Ab|--2--2------------4--4------------2--------------------------------|
Eb|------------------2--2------------0--------------------------------|






Riff 6a (semi-clean guitar, let ring)
                                                                             
Eb|-------------------------------------------------------------------|
Bb|-------------------------------------------------------------------|
Gb|---4----2----1--2--1----4------2----1--2--1------4----2----1-------|
Db|--------------------------------------------------------------2----|
Ab|-----------------------------------------------------------------2-|
Eb|-0----0----0-----------------0-----------------0-------------------|
   <- - - - - - - - - - 2x - - - - - - - - - ->

                                                                           
Eb|-------------------------------------------------------------------|
Bb|-------------------------------------------------------------------|
Gb|--------------------------4----2----1------------------------------|
Db|-4------2----1--2--1-------------------2-------2-------2-------2/4-|
Ab|------2-----------------------------------0---------0-------0------|
Eb|------------------------0------------------------------------------|

                                                                                         
Eb|-------------------------------------------------------------------|
Bb|-------------------------------------------------------------------|
Gb|-----4----2----1---------------------------------------------------|
Db|------------------2-------4-------2----1--2--1----2----------------|
Ab|---------------------2---------2-----------------------------------|
Eb|--0----------------------------------------------------------------|



Riff 6b (clean electric with chorus and reverb)

                                                                                               
Eb|-7-----------0-7----5----4-0---2----0------------0-7----5----4-0---|
Bb|----5------------------------0----------4h-5p-4--------------------|
Gb|-----------------------------------------------------------------2-|
Db|-------------------------------------------------------------------|
Ab|-------------------------------------------------------------------|
Eb|-------------------------------------------------------------------|


                                                                                             
Eb|--0------0------0h2----0-7----5----4-0----2------0-----------------|
Bb|----------------------------------------0-------------4h-5p-4--5---|
Gb|---------------------------------------------------------------4---|
Db|---------------------------------------------------------------6---|
Ab|-------------------------------------------------------------------|
Eb|-------------------------------------------------------------------|

We are one
Simmons

[Intro: Riff 1a]

[Riff 1a]
You are not alone
But how long can you run
It¥smuch to late if you don¥t lnow
What you¥ve got ¥til it¥s gone

Once upon a time you were a child 
But that was yesterday
Believed that magic in your heart
Would never fade away

But, hold your head up high
And let your spirits fly
Keep hope alive yes deep inside
And your dreams will never die

[Riff 1b and Riff 2]
We are one, everywhere I go
Everyone I see
And I see my face looking back at me
We are one, everything I know
What I know is true
Everyone of us lives inside of you
We are one
We are one

[Riff 1a and Riff 3]
Take a breath, and close your eyes
You¥re on the road again
And then you realise they brought you
Back to life again

Some things never change
But if you fantasize
You¥ll feel it deep inside yourself
And then you¥ll realise

When you feel it coming
When you hear the sound
You¥ll always laugh when you mant to cry
And then you¥ll feel it deep inside

[Riff 1b and Riff 2]
We are one, everywhere I go
Everyone I see
And I see my face looking back at me
We are one, everything I know
What I know is true
Everyone of us lives inside of you
We are one
We are one




[Riff 4]
You are me, I am you
What you see is all true
You are me, I am you
What you see is all true
You are me, I am you
What you see is all true

[Riff 1b, Riff 2 and Riff 3]
We are one
We are one
[Riff 5]

[Riff 6a and Riff 6b]
Comments