Kiss - War Machine Chords & Tabs

 

War Machine Chords & Tabs

Kiss Chords & Tabs

Version: 3 Type: Tab

War Machine Tab

   
e|--------------------------------------------------------------------------------|
B|--------------------------------------------------------------------------------|
G|--------------------------------------------------------------------------------|
D|----------------------------------------------------------------X 2-------------|
A|--------------------------------------------------------------------------------|
E|0-7-0-5-0-7-0-3-5---0-7-0-3-0-7-0-7-0-3-5---------------------------------------|
Verse
e|-----------------------------------------------------------------------------|
B|-----------------------------------------------------------------------------|
G|----------2--2-------2-------------2----------2------------------------------|
D|2---------2--2-------2-------------2----------2----------2--2------2---------|
A|2---------0--0-------0-------------0----------0----------2--2------2---------|
E|0----3-----------3---------------------------------3-----0--0---3--0---------|

e|---------------------------------------------------------------------------|
B|---------------------------------------------------------------------------|
G|--------4--4---4--4--------------------------------------------------------|
D|2-------4--4---4--4--------------------------------------------------------|
A|2-------2--2---0--0--------------------------------------------------------|
E|0--3-----------------3--3---2----------------------------------------------|

These are just the main riffs that go with the intor/chorus, verse, bridge. I don't know 
solo, sorry.  Listen to the cd and figure it out. I believe it's close if not right on. 
Keep rockin!

| /  slide up
|   slide down
| h  hammer-on
| p  pull-off
| ~  vibrato
| +  harmonic
| x  Mute note
[ Tab from: http://www.guitartabs.cc/tabs/k/kiss/war_machine_tab_ver_3.html ]