Kiss - Sure Know Something Chords & Tabs

 

Sure Know Something Chords & Tabs

Kiss Chords & Tabs

Version: 1 Type: Tab 0 ratings
1 star 2 stars 3 stars 4 stars 5 stars
comments

Sure Know Something Tab

   
Kiss - Sure Know Something
Tabbed by Une (with a little help from my friends)

/= Slide Down
\= Slide Up

Intro: Gene Simmons plays his bassintro and just before you go into the first verse you play:

E|----------------------------------------|
B|---8-------8----8-----------------------|
G|------7------7--------------------------|
D|---------9----9-------------------------|
A|----------------------------------------|
E|----------------------------------------|

"I've been up and down.." And when Paul is singing "up.." you start playing the verse rythm:

E|-----7--7-7--7--7\---5--5-5--5--5/---7--7----5-5/-|----------------------|
B|-----8--8-8--8--8\---5--5-5--5--5/---7--7----5-5/-|---8-------8--8-------|
G|-----7--7-7--7--7\---5--5-5--5--5/---7--7----5-5/-|------7-----7---------|
D|-----9--9-9--9--9\---5--5-5--5--5/---7--7----5-5/-|---------9---9--------|
A|-----7--7-7--7--7\---7--7-7--7--7/---9--9----7-7/-|----------------------|
E|---7-7--7-7--7--7\5--5--5-5--5--5/7--7--7\5--5-5/-|----------------------|

For the second part you repeat this pattern exept for the end (bridge) were you play 
this

E|--------------------------------------------------------|
B|--------------------------------------------------------|
G|--------------------------------------------------------|
D|--------------------------------5-5/7-7-----------------|
A|-----5-5-5-5-5-5-5-5-5-5-5-5-5--3-3/5-5-----------------|
E|-----7-7-7-7-7-7-7-7-7-7-7-7-7--------------------------|

Verse: For the verse you pla like this:

"I've been a gambler but I'm nobodys fool.." you just play a D5 until Paul sings like this:
[ Tab from: http://www.guitartabs.cc/tabs/k/kiss/sure_know_something_tab.html ]
"..and I sure know something, sure know something..."
E|---------------------------------------------------------------------|
B|---------------------------------------------------------------------|
G|------------------2--------------------2-----------------------------|
D|--------5-----4---2----------5-----4---2----------7-7-(let ring)-----|
A|--------3-----2---0----5-----3-----2---0----5-----5-5-(let ring)-----|
E|-----------------------3--------------------3------------------------|

And then you do it all over again at "You showed my things they never taught me in school..."

"..and I sure know something, sure know something AHA!"
E|---------------------------------------------------------------------|
B|---------------------------------------------------------------------|
G|------------------2--------------------2-----------------------------|
D|--------5-----4---2----------5-----4---2-----------------------------|
A|--------3-----2---0----5-----3-----2---0----5--5-7----(let ring)-----|
E|-----------------------3--------------------3--3-5----(let ring)-----|

And then you play the whole song again (with another lyrics off-course). Then comes the 
- by Ace, and it goes something like this:

E|-------------------------------------10----10---9----|
B|-----------------------------6----10----10----9---7--|
G|---7-------------5-7-5-5(7)----7---------------------|
D|----7------3-5/7-------------------------------------|
A|---------5-------------------------------------------|
E|-----------------------------------------------------|

E|---------10p13-10----10----10(14)---17\15(17)-15(17--|
B|---10p13----------13----13---------------------------|
G|-----------------------------------------------------|
D|-----------------------------------------------------|
A|-----------------------------------------------------|
E|-----------------------------------------------------|

After the solo, during the "AAAAAAH AAAAAAH AAAAAAH AAAH.." :
D5, C5, G5| D5, C5, G5, A5, G5

And play the last verse as the other verses.
Enjoy
Comments