Kiss - Strutter Chords & Tabs

 

Strutter Chords & Tabs

Kiss Chords & Tabs

Version: 4 Type: Tab 0 ratings
1 star 2 stars 3 stars 4 stars 5 stars
comments

Strutter Tab

Song: Strutter
Artist: KISS
Tabbed by: Theozzfancometh@aol.com

I think this is the whole song (other than the solo--you're on your own there).
You shouldn't have to tune your guitar any differently but if you like having it
tuned down a half step like most other KISS songs then just move all of my tabs
up a fret.

Intro

e---------------------------------------------------------------
B-----------4-----------------------------7---------------------
G----3-3-3------3-3--------4--------6--6------6-6---------------
D----3-3-3--3-3-3-3--4--4------4-4--6--6--6-6-6-6--6-6--6--6----
A----1-1-1--1-1-1-1--4--4--4-4-4-4--4--4--4-4-4-4--6-6--6--6----
E--------------------2--2--2-2-2-2-----------------4-4--4--4----

e--------------------------------------------------------------
B-----------4-----------------------------7----------7--7-7----
G----3-3-3------3-3--------4--------6--6------6-6--------------
D----3-3-3--3-3-3-3--4--4------4-4--6--6--6-6-6-6----6--6-6----
A----1-1-1--1-1-1-1--4--4--4-4-4-4--4--4--4-4-4-4----4--4-4----
E--------------------2--2--2-2-2-2-----------------------------

All Verses (Play the following 2x in each verse)
[ Tab from: http://www.guitartabs.cc/tabs/k/kiss/strutter_tab_ver_4.html ]
e-------------------------------------------------------
B---------------------------------------------7--7-7----
G----3--3-3--3-3---------------6--6-6--6-6--------------
D----3--3-3--3-3--4--4-4--4-4--6--6-6--6-6----6--6-6----
A----1--1-1--1-1--4--4-4--4-4--4--4-4--4-4----4--4-4----
E-----------------2--2-2--2-2---------------------------

e----------------------------------------------------------
B----------------------------------------------------------
G----3--3-3--3-3---------------6--6-6--6-6-----------------
D----3--3-3--3-3--4--4-4--4-4--6--6-6--6-6--6--6-6--6-6----
A----1--1-1--1-1--4--4-4--4-4--4--4-4--4-4--6--6-6--6-6----
E-----------------2--2-2--2-2---------------4--4-4--4-4----

Chorus 
("Everybody says she's lookin' good, and the lady knows it's understood...")
(Play 2x)

e-------------------------------
B-------------------------------
G----3--3-3-3-3-3---------------
D----3--3-3-3-3-3--4-4--4--4----
A----1--1-1-1-1-1--4-4--4--4----
E------------------2-2--2--2----

Bridge ("...Strutter!")
(Play 2x)

e--------------------------------------------------
B--------------------------------------------------
G--------------------------6-8--8----6-------------
D----6-8--8--6-8-8--6-8-8--6-8--8----6-8----6-3----
A----6-8--8--6-8-8--6-8-8--4-6--6----4-8----6-3----
E----4-6--6--4-6-6--4-6-6--------------6----4-1----

Solo

Yeah right!  I don't know it!  Make something up or figure it out yourself!  If
you figure it out post it here!

The only thing I know about the solo is the bridge is played in the background,
and it's played 4x instead of 2x.


Have fun!
Comments