Kiss - Strutter Chords & Tabs

 

Strutter Chords & Tabs

Kiss Chords & Tabs

Version: 2 Type: Bass Tab 0 ratings
1 star 2 stars 3 stars 4 stars 5 stars
comments

Strutter Bass Tab

Fig. 1
Gb|---------------------------------------------------|
Db|---------------------------------4-7-4-------------|
Ab|--2-2-------------2--3--4----5-5------------4-7-4--|
Eb|--------0-1-2--3------------------------5-5--------|

Gb|---------------------------------------|
Db|---------------------------------4-7-4-|
Ab|--2-2-------------2--3--4----5-5-------|
Eb|--------0-1-2--3-----------------------|
                                

Fig. 2 - Verse 1
Gb|---------------------------------------|
Db|---------------------------------------|
Ab|--2-2-------------2--3--4----5-5-4-----|
Eb|--------0-1-2--3-------------------7-5-|
                                

Gb|---------------------------------------------------|
Db|---------------------------------4-7-4-------------|
Ab|--2-2-------------2--3--4----5-5------------4-7-4--|
Eb|--------0-1-2--3------------------------5-5--------|

Gb|----------------------------------------|
Db|---------------------------------4-7-4--|
Ab|--2-2-------------2--3--4----5-5--------|
Eb|-------0-1-2--3-------------------------|
                                

Gb|---------------------------------------------------|
Db|---------------------------------4-7-4-------------|
Ab|--2-2-------------2--3--4----5-5-------------------|
Eb|--------0-1-2--3------------------------5-5-3-2-0--|


Fig. 2 - Verse 2
Gb|---------------------------------------|
Db|---------------------------------------|
Ab|--2-2-------------2--3--4----5-5-4-----|
Eb|--------0-1-2--3-------------------7-5-|
                                

Gb|---------------------------------------------------|
Db|---------------------------------4-7-4-------------|
Ab|--2-2-------------2--3--4----5-5------------4-7-4--|
Eb|--------0-1-2--3------------------------5-5--------|
[ Tab from: http://www.guitartabs.cc/tabs/k/kiss/strutter_btab_ver_2.html ]
Gb|---------------------------------------|
Db|---------------------------------------|
Ab|--2-2-------------2--3--4----5-5-4-----|
Eb|--------0-1-2--3-------------------7-5-|
                                

Gb|---------------------------------------------------|
Db|---------------------------------4-7-4-------------|
Ab|--2-2-------------2--3--4----5-5-------------------|
Eb|--------0-1-2--3------------------------5-5-3-2-0--|

Fig. 2 - Verse 3
Gb|---------------------------------------|
Db|---------------------------------------|
Ab|--2-2-------------2--3--4----5-5-4-----|
Eb|--------0-1-2--3-------------------7-5-|
                                

Gb|---------------------------------------------------|
Db|---------------------------------4-7-4-------------|
Ab|--2-2-------------2--3--4----5-5-------------------|
Eb|--------0-1-2--3------------------------5-5-3-2-0--|

Gb|----------------------------------------|
Db|---------------------------------4-7-4--|
Ab|--2-2-------------2--3--4----5-5--------|
Eb|--------0-1-2--3------------------------|
                                

Gb|---------------------------------------------------|
Db|---------------------------------------------------|
Ab|--2-2-------------2--3--4----5-5-4-----------------|
Eb|--------0-1-2--3-------------------7-5--5-5-3-2-0--|

Rhythm Fig. 3
Gb|-------------------------------------------------|
Db|-------------------------------------------------|
Ab|--2-------2-2------------------------------------|
Eb|-------------------3------3-3--------------------|
     

Rhythm Fig. 4 (2x end. 1 then end. 2)
Gb|---------------------------------------|
Db|-----------------------------------0-2-|
Ab|--0--2-2--0--2-2----0--2-2----0-2------|
Eb|---------------------------------------|

   end. 1                end. 2
Gb|-------------------|------------------|
Db|--0----------------|------------------|
Ab|----2--0-----------|-----3--5---------|
Eb|---------2---------|--3--------5------|

Rhythm Fig. 5
Gb|----------|
Db|----------|
Ab|--2-------|
Eb|----------|

Comments