Kiss - Shout It Out Loud Chords & Tabs

 

Shout It Out Loud Chords & Tabs

Kiss Chords & Tabs

Version: 1 Type: Bass Tab 0 ratings
1 star 2 stars 3 stars 4 stars 5 stars
comments

Shout It Out Loud Bass Tab

   
Song: SHOUT IT OUT LOUD
Artist: KISS
Album: DESTROYER
--------------------
                                                                                    
Transcribed by Emil Ortenmark, kfemil@telia.com 

Tuned down 1/2-step

Comments: Previously tabbed by B. Priddle but in standard tuning
and, as far as I could tell, wrong in a few places. No part of
his original tab has been used in this one.


Key:
/    = slide up
\    = slide down
b    = bend (whole step)
b^   = bend (1/2 step)
b^^  = bend (1 1/2 steps)
pb   = pre-bend
r    = release-bend
t    = tap with righthand finger
h    = hammer-on
p    = pull-off
~    = Vibrato
*    = Natural Harmonic
#(#) = Trill
**   = Artificial Harmonic
x    = Dead notes (no pitch)
P.M. = Palm mute (- -> underneath indicates which notes)
(\)  = Dive w\bar
(/)  = Release w\bar
Tp   = Tap w\plectrum


Rhythm Fig. 1
                                                        
Gb|--11-----13-----11-----13-----11--13--11------|
Db|------------------------------------------14--|
Ab|----------------------------------------------|
Eb|----------------------------------------------|


                                                    
Gb|--11------13------11------13------11--13--11--|
Db|----------------------------------------------|
Ab|----------------------------------------------|
Eb|----------------------------------------------|


                                                  
Gb|--14------13------11--------------------------|
Db|--------------------------14------13----11----|
Ab|----------------------------------------------|
Eb|----------------------------------------------|


Rhythm Fig. 2
                                               
Gb|----------------------------------------------|
Db|----------------------------------------------|
Ab|----------------------------------------------|
Eb|--7----7----7--7----7--7----7----7--7---------|


                                          
Gb|----------------------------------------------|
Db|----------------------------------------------|
Ab|--5------------------5------------------------|
Eb|-------5------------------5-------------------|

[ Tab from: http://www.guitartabs.cc/tabs/k/kiss/shout_it_out_loud_btab.html ]
Rhythm Fig. 3
                                                
Gb|----------------------------------------------|
Db|----------------------------------------------|
Ab|--5------------------5---(5)------------------|
Eb|-------7----5--5--7---------7----5--5--7------|


                                                 
Gb|----------------------------------------------|
Db|-------7----7---------------------------------|
Ab|---------------5--6--7------7----7-----7------|
Eb|--5---------------------------------7-----7---|


                                                
Gb|----------------------------------------------|
Db|----------------------------------------------|
Ab|--5------------------5---(5)------------------|
Eb|-------7----5--5--7---------7----5--5--7------|


                                            
Gb|----------------------------------------------|
Db|-------7----7---------------------------------|
Ab|----------------------------------------------|
Eb|--5------------5--5--7------------------------|


Rhythm Fig. 4
                                                      
Gb|----------------------------------------------|
Db|----------------------------------------------|
Ab|----------------------------------------------|
Eb|--7--7--7--7--7--7--7--7----------------------|
    < - - - - - 2x - - - ->


End 1
                                              
Gb|----------------------------------------------|
Db|--7------6------4-----------------------------|
Ab|-----------------------7----0--6--0--4--------|
Eb|----------------------------------------------|


Riff 1
                                          
Gb|----------------------------------------------|
Db|----------------------------------------------|
Ab|----------------------------------------------|
Eb|--5-------------------------------------------|


Riff 2
                                          
Gb|----------------------------------------------|
Db|----------------------------------------------|
Ab|----------------------------------------------|
Eb|--2/-(7)--------------------------------------|


Riff 3
                                        
Gb|----------------------------------------------|
Db|----------------------------------------------|
Ab|----------------------------------------------|
Eb|--7-------------------------------------------|


Comments