Kiss - Rise To It Chords & Tabs

 

Rise To It Chords & Tabs

Kiss Chords & Tabs

Version: 1 Type: Bass Tab 0 ratings
1 star 2 stars 3 stars 4 stars 5 stars
comments

Rise To It Bass Tab

Rise to it by Kiss
Standard Tuning

(Bass Intro)
G:----------|
D:-0 /  \  -|
A:----------|
E:----------|

G:----------|----------|----------|----------|
D:----------|----------|----------|----------|  x3
A:----------|----------|----------|----------|
E:3--3--3--3|3--3--3--3|3--3--3--3|3--1--1--3|

G:----------|----------|----------|----------|
D:----------|----------|----------|----------|
A:----------|----------|5--5--5--5|5--5--5--5|
E:3--3--3--3|3--3--3--3|----------|----------|

G:----------|----------|----------|----------|
D:----------|----------|----------|----------|  x4
A:----------|----------|----------|----------|
E:3--3--3--3|3--3--3--3|3--3--3--3|3--3--3--3|

G:----------|----------|----------|----------|
D:----------|----------|----------|----------|  x2
A:----------|----------|----------|----------|
E:5--5--5--5|5--5--5--5|5--5--5--5|5--3--3--5|

G:----------|----------|----------|----------|
D:----------|----------|----------|----------|
A:3-3-3--5-5|3-3-3--5-5|3-3-3--5-5|5--5--5--5|
E:----------|----------|----------|----------|

G:----------|
D:--5\------|
A:----------|
E:----------|

G:----------|----------|----------|----------|
D:----------|----------|----------|----------|  x2
A:----------|----------|----------|3--3--3---|
E:3--3--3--3|3--3--3--3|3--3--3--3|---------1|

G:----------|----------|----------|----------|
D:----------|----------|----------|----------|
A:----3-----|3--3--3--3|-3---3---3|----------|
E:----------|----------|----------|---1--1---|

G:----------|----------|----------|----------|
D:----------|----------|----------|----------| 
A:----------|----------|----------|----------|
E:3--3--3--3|3--3--3--3|3--3--3--3|3--1--1--3|

G:----------|----------|----------|----------|
D:----------|----------|3--3--3--3|3/--------|
A:5--5--5--5|5--5--5--5|----------|----------|
E:----------|----------|----------|----------|

G:----------|----------|----------|----------|
D:----------|----------|----------|----------| 
A:----------|----------|----------|3--3--3---|
E:3--3--3--3|3--3--3--3|3--3--3--3|---------1|

G:----------|----------|----------|----------|
D:----------|----------|----------|----------|  x6
A:----------|----------|----------|----------|
E:3--3--3--3|3--3--3--3|3--3--3--3|3--3--3--3|

G:----------|----------|----------|----------|
D:----------|----------|----------|----------|  x2
A:----------|----------|----------|----------|
E:5--5--5--5|5--5--5--5|5--5--5--5|5--3--3--5|

G:----------|----------|----------|----------|
D:----------|----------|----------|----------| 
A:----------|----------|----------|----------|
E:3--3--3--3|3--3--3--3|3--3--3--3|3--3--3--3|

G:----------|
D:--5\------|
A:----------|
E:----------|
[ Tab from: http://www.guitartabs.cc/tabs/k/kiss/rise_to_it_btab.html ]
G:----------|----------|----------|----------|
D:----------|----------|----------|----------|  x2
A:----------|----------|----------|3--3--3---|
E:3--3--3--3|3--3--3--3|3--3--3--3|---------1|

G:----------|----------|----------|----------|
D:----------|----------|----------|----------|
A:----3-----|3--3--3--3|-3---3---3|----------|
E:----------|----------|----------|---1--1---|

G:----------|----------|----------|----------|
D:----------|----------|----------|----------|
A:----------|----------|----------|3--3--3---|
E:3--3--3--3|3--3--3--3|3--3--3--3|---------1|

G:----------|----------|----------|----------|
D:----------|----------|3--3--3--3|3/--------|
A:5--5--5--5|5--5--5--5|----------|----------|
E:----------|----------|----------|----------|

G:----------|----------|----------|----------|
D:----------|----------|----------|----------|
A:5--5--5--5|5--5--5--5|5--5--5--5|3--3--3--5|
E:----------|----------|----------|----------|

G:----------|----------|----------|----------|
D:----------|----------|----------|----------|
A:----------|----------|3--3--3--3|3--3--3--3|
E:1--1--1--1|1--1--1--1|----------|----------|

G:----------|----------|----------|----------|
D:----------|----------|----------|----------|
A:1--1--1--1|1--1--1--1|----------|----------|
E:----------|----------|3--3--3--3|3--3--3--3|

G:----------|----------|----------|----------|
D:----------|----------|----------|----------|
A:----------|----------|----------|----------|
E:1--1--1--1|1--1--1--1|0--0--0--0|0--0--0--0|

G:----------|----------|----------|----------|
D:1--1--1--1|1--1--1--1|3--3--3--3|3--3--3--3|
A:----------|----------|----------|----------|
E:----------|----------|----------|----------|

G:----------|----------|----------|----------|
D:----------|----------|----------|----------|  x2
A:----------|----------|----------|3--3--3---|
E:3--3--3--3|3--3--3--3|3--3--3--3|---------1|

G:----------|----------|----------|----------|
D:----------|----------|----------|----------|
A:----3-----|3--3--3--3|-3---3---3|----------|
E:----------|----------|----------|---1--1---|

G:----------|----------|----------|----------|
D:----------|----------|----------|----------| 
A:----------|----------|----------|----------|
E:3--3--3--3|3--3--3--3|3--3--3--3|3--1--1--3|

G:----------|----------|----------|----------|
D:----------|----------|3--3--3--3|3/--------|
A:5--5--5--5|5--5--5--5|----------|----------|
E:----------|----------|----------|----------|

G:----------|----------|----------|----------|
D:----------|----------|----------|----------| (Repeats until
A:----------|----------|----------|----------|     fade out)
E:3--3--3--3|3--3--3--3|3--3--3--3|3--1--1--3|

Thanks, please rate it after you learn it.
Tabbed By:
_TheBassist01_
Comments