Kiss - Reason To Live Chords & Tabs

 

Reason To Live Chords & Tabs

Kiss Chords & Tabs

Version: 2 Type: Tab 0 ratings
1 star 2 stars 3 stars 4 stars 5 stars
comments

Reason To Live Tab

   
Just a simple chord version of this - sounds pretty good when strummed. Enjoy.

Reason To Live (Stanley, Child)

Dm	C (x8)

	Gm  F
Out of love, there's nobody around
All I hear is the sound of a broken heart 
Out of time, no more waitin' for you 
Now the hurtin's through, and a new day starts 

C			   G	  C			   G
And I feel a change in my life, I sailed into dark and endless nights 
E|--------------------|
B|--------------------|
G|--------------3-----|
D|--------------3-----|
A|-----0---1----1-----|
E|--3-----------------|
And made it alive 

F		   Bb	     C	   Bb C
Everybody's got a reason to live, baby 
	
		     E|---------------------------|
		     B|---------------------------|
	 	     G|-----------5---------------|
		     D|-----------5---------------|
		     A|--------0--3---------------|
Dm		  Bb E|--1--3---------------------|
Everybody's got a dream and a hunger inside 
Dm   		  Bb 	      F           C             Bb
Everybody's got a reason to live, but it can't be your love 

Dm
[ Tab from: http://www.guitartabs.cc/tabs/k/kiss/reason_to_live_tab_ver_2.html ]
Out of touch, with myself for so long
Now a feelin' so strong comin' over me 
Down the line, there's a lesson I've learned 
You can love and get burned, if it has to be 


And I see a change in my life, and I'm not alone when I'm strong inside 
And I realize 

Everybody's got a reason to live, baby 
Everybody's got a dream and a hunger inside 
Everybody's got a reason to live, but it can't be your love

Solo over Intro chords

C#			   G#
And I feel a change in my life
					E|-----------------|
					B|-----------------|
					G|------------4----|
					D|------------4----|
					A|----1---2---2----|
C#			    G#       	E|-4---------------|
And I'm not alone when I'm strong inside and I realize 

F# 		   B        C#	    B C#
Everybody's got a reason to live, baby 

				E|-----------|
				B|-----------|
				G|---------6-|
				D|---------6-|
				A|---------4-|
Ebm                B		E|2--4--6----|
Everybody's got a dream and a hunger inside 
Ebm		    B	      F#	   C#		  B
Everybody's got a reason to live, but it can't be your love


Everybody's got a reason to live, baby 
Everybody's got a dream and a hunger inside 
Everybody's got a reason to live, but it can't be your love
	B	     Ebm   C#
No it can't be your love

Ebm	C#

No it can't be your love 
No it can't be your love
Comments