Kiss - Plaster Caster Chords & Tabs

 

Plaster Caster Chords & Tabs

Kiss Chords & Tabs

Version: 1 Type: Tab 0 ratings
1 star 2 stars 3 stars 4 stars 5 stars
comments

Plaster Caster Tab

   
-------------------------------------------------------------------------------
			     Plaster caster - kiss
-------------------------------------------------------------------------------
Tabbed by:JOhn ILTIS
Email:Jvranger49@yahoo.com

Tuning:1/2 step down
    A  D  D   D D D   D D A
E --2--2--2-3-2-2-2-3-2-2-2---           REPEAT 
B|--2--3--3-3-3-3-3-3-3-3-2---
G|--2--2--2-2-2-2-2-2-2-2-2---
D|--2--0--0-0-0-0-0-0-0-0-2---
A|--0---------------------0-
E|----------------------------
[ Tab from: http://www.guitartabs.cc/tabs/k/kiss/plaster_caster_tab.html ]
   A  D  D   D D D   D D A
E --2--2--2-3-2-2-2-3-2-2-2---
B|--2--3--3-3-3-3-3-3-3-3-2---
G|--2--2--2-2-2-2-2-2-2-2-2---
D|--2--0--0-0-0-0-0-0-0-0-2---
A|--0---------------------0-
E|----------------------------

   A  D  D   D D D   D D A
E --2--2--2-3-2-2-2-3-2-2-2---
B|--2--3--3-3-3-3-3-3-3-3-2---
G|--2--2--2-2-2-2-2-2-2-2-2---
D|--2--0--0-0-0-0-0-0-0-0-2---
A|--0---------------------0-
E|----------------------------
Comments