Kiss - Nothing Can Keep Me From You Chords & Tabs

 

Nothing Can Keep Me From You Chords & Tabs

Kiss Chords & Tabs

Version: 1 Type: Tab 0 ratings
1 star 2 stars 3 stars 4 stars 5 stars
comments

Nothing Can Keep Me From You Tab

Kiss - NOthing can keep me from you
(Detroit Rock City Soundtrack)
SEX DRUGS & ROCK'N ROLL!


E|-----------------------------------------1----------| 
B|--------1-----------0-----------1-------1-----------| 
G|-----------0-----------0-----------2---2------------| 
D|-----2-----------0-----------3--------3-------------| 
A|--3-------------------------------------------------| 
E|--------------3-----------1-------------------------| 

Rhythm Fig. 2a (acoustic 12-string) 
E|--0----0----3----3--------------1----1--------------| 
B|--1----1----3----3--------------1----1--------------| 
G|--0----0----0----0----2----2----2----2--------------| 
D|--2----2----0----0----3----3----3----3--------------| 
A|--3----3----x----x----3----3------------------------| 
E|------------3----3----1----1------------------------| 

E|--0----0----3----3----0----0----0----0--------------| 
B|--1----1----3----3----1----1----1----1--------------| 
G|--0----0----0----0----2----2----2----2--------------| 
D|--2----2----0----0----2----2----2----2--------------| 
A|--3----3----x----x----0----0----0----0--------------| 
E|------------3----3----------------------------------| 

Rhythm Fig. 2b (acoustic 12-string) 

E|--1----1----0----0----1----1----1----1--------------| 
B|--1----1----1----1----3----3----1----1--------------| 
G|--2----2----0----0----3----3----2----2--------------| 
D|--3----3----2----2----3----3----3----3--------------| 
A|--3----3----3----3----1----1----3----3--------------| 


E|--1----1------------------------1----1--------------|
E|--3----3----3----3----------------------------------| 
B|--3----3----3----3----------------------------------| 
G|--0----0----0----0----------------------------------| 
D|--0----0----0----0----------------------------------| 
A|--x----x----x----x----------------------------------| 
E|--3----3----3----3----------------------------------| 


Rhythm Fig. 3 
E|--------------------------------------1-------------| 
B|--------------------------------------1-------3-----| 
G|--------------------3-------------------------0-----| 
D|--------------------3-------------------------0-----| 
A|--3--------3--------1------1-3-0--------------x-----| 
E|--1--------0---------------------3-1----------3-----| 

Let ring Ride chord Rhythm Fig. 4 (crescendo) 

E|----------------------------------------------------| 
B|----------------------------------------------------| 
G|----------------------------------------------------| 
D|----------------------------------------------------| 
A|----------------------------------------------------| 
E|--3--3--3--3--3--3--3--3----------------------------| 

Rhythm Fig. 5 (let ring) 

E|-----------3-------------------3--------------------|
B|--------------3-------3-----------------------------| 
G|--0--------------0----0-----------------------------| 
D|--x-------------------x-----------------------------| 
A|--3-------------------2-----------------------------| 
E|----------------------------------------------------| 

E|----------------------------------------------------| 
B|-------6----------8--------------3----3-------------| 
G|-------7----------9--------------2----0-------------| 
D|--7----7----------9--------------0----0-------------| 
A|--5---------7-------------------------x-------------| 
E|---------------0-------1----0---------3-------------| 

E|-----------3-------------------3--------------------| 
B|--------------3-------3-----------------------------| 
G|--0--------------0----0-----------------------------| 
D|--x-------------------x-----------------------------| 
A|--3-------------------2-----------------------------| 
E|----------------------------------------------------| 

E|----------------------------------------------------| 
B|-------6----------8--------------3------------------| 
G|-------7----------9--------------2------------------| 
D|--7----7----------9--------------0----0-------------| 
A|--5---------7----------1----0---------x-------------| 
E|---------------0----------------------3-------------| 

Rhythm Fig. 6 

E|----------------------------------------------------| 
B|-------------3--------------------------------------| 
G|--5----------0--------------------------------------| 
D|--5------x-x-0--------3-----------------------------| 
A|--3------x-x-x--------3-----------------------------| 
E|---------x-x-3--------1-----------------------------| 

Rhythm Fig. 7 

E|-----------3-------------------3--------------------| 
B|--------------3-------3-----------------------------| 
G|--0-------------0-----0-----------------------------| 
D|--x-------------------x-----------------------------| 
A|--3-------------------2-----------------------------| 
E|----------------------------------------------------| 

E|----------------------------------------------------| 
B|-------6----------8---------------------------------| 
G|-------7----------9--------------2------------------| 
D|--7----7----------9--------------0----------0-------| 
A|--5---------7---------------------------0-2---------| 
E|---------------0-------1----0---------3-------------| 

E|----------------------------------------------------| 
B|--3-------------------------------------------------| 
G|--0------x-x----------------------------------------| 
D|--x------x-x----------------------------------------| 
A|--3------x-x----------------------------------------| 
E|----------------------------------------------------| 
[ Tab from: http://www.guitartabs.cc/tabs/k/kiss/nothing_can_keep_me_from_you_tab.html ]
Rhythm Fig. 8 

E|----------------------------------------------------| 
B|-------3---------3---------1--------1---------------| 
G|-------3---------3---------2--------2---------------| 
D|--3----3---------3---------3--------3---------------| 
A|--1---------1---------0----------------0-3----------| 
E|----------------------------------------------------| 

Let ring - - - - - - - - - - - - - > 
E|----------------------------------------------------| 
B|-------3------------3---------1---------------------| 
G|-------3------------3---------2---------------------| 
D|--3-----------------3---------3---------------------| 
A|--1---------1-1-1-1------0--------------------------| 
E|----------------------------------------------------| 

Let ring P.M. -> Let ring 

E|-------6--------------------------------------------| 
B|-------6-------------3------------------------------| 
G|--8---------7--------0------------------------------| 
D|--8---------8--------0------------------------------| 
A|--6---------5--------x------------------------------| 
E|---------------------3------------------------------| 

Let ring Ride chord Rhythm Fig. 9 (let ring) 

E|-----------3----------------3-----------------------| 
B|--------------3-------3-----3-----------------------| 
G|--0--------------0----0-----0-----------------------| 
D|--x-------------------x----------------0-3----------| 
A|--3-------------------2------------2-3--------------| 
E|----------------------------------------------------| 

E|----------------------------------------------------| 
B|-------6----------8--------------3----3-------------| 
G|-------7----------9--------------2----0-------------| 
D|--7----7----------9--------------0----0-------------| 
A|--5---------7-------------------------x-------------| 
E|---------------0-------1----0---------3-------------| 

E|-----------3----------------------3-----------------| 
B|--------------3--1---3/5-3--------------------------| 
G|--0----------------0-----0--------------------------| 
D|--x-------------------------------------------------| 
A|--3-------------------------------------------------| 
E|----------------------------------------------------| 

E|----------------------------------------------------| 
B|-------6----------8~-------------3-----------3--3---| 
G|-------7----------9~-------------2-----------0--0---| 
D|--7----7-------------------------0-----------0--0---| 
A|--5---------7----------1----0----------------x--x---| 
E|---------------0-----------------------------3--3---| 

Rhythm Fig. 10 (let ring) 

E|-------3---------3---------3------------------------| 
B|-------3---------3----3----3--------3---------------| 
G|--0----0----0----0----2----2--------0---------------| 
D|--x---------x---------0-------------0---------------| 
A|--3---------2-----------------------x---------------| 
E|------------------------------------3---------------| 

< - - - - - - - - - 2x - - - - - - - - > 
E|-------3---------3---------3------------------------| 
B|-------3---------3----3----3------------------------| 
G|--0----0----0----0----2----2------------------------| 
D|--x---------x---------0---------0-------------------| 
A|--3---------2---------------------------------------| 
E|-------------------------------------3--------------| 

E|----------0-----------------------------------------| 
B|--------1-------------------------------------------| 
G|------0---------------------------------------------| 
D|----2-----------------------------------------------| 
A|--3-------------------------------------------------| 
E|----------------------------------------------------| 
ras Rhythm Fig. 11 (acoustic 12-string) 
E|----------0-----------------------------------------| 
B|--------1-------------------------------------------| 
G|------0---------------------------------------------| 
D|----2-----------------------------------------------| 
A|--3-------------------------------------------------| 
E|----------------------------------------------------| 

ras Riff 1 (semi-clean electric) 

E|--3/5\3--1------------------------------------------| 
B|--3/5\3--1------------------------------------------| 
G|----------------------------------------------------| 
D|----------------------------------------------------| 
A|----------------------------------------------------| 
E|----------------------------------------------------| 

Riff 2 

E|------1/3\1-----------------------------------------| 
B|------1/3\1-----------------------------------------| 
G|----------------------------------------------------| 
D|----------------------------------------------------| 
A|----------------------------------------------------| 
E|----------------------------------------------------| 

Riff 3 

E|----------------------------------------------------| 
B|------8---------------------------------------------| 
G|--7b----7-------------------------------------------| 
D|----------7\----------------------------------------| 
A|----------------------------------------------------| 
E|----------------------------------------------------| 

Riff 4 

E|----------------------------------------------------| 
B|-----------------------------------3----------------| 
G|-----------------------------------0----------------| 
D|------5--3--7----7-5---------------0----------------| 
A|---------------------8-7-6----5----x----------------| 
E|-----------------------------------3----------------| 
Comments