Kiss - Mr Speed Chords & Tabs

 

Mr Speed Chords & Tabs

Kiss Chords & Tabs

Version: 3 Type: Tab 0 ratings
1 star 2 stars 3 stars 4 stars 5 stars
comments

Mr Speed Tab

   
This song was taken from kisstabs.com, and there are a ton of good kiss songs tabbed
out there correctly. I think this is one of the coolest riffs ever thought up by kiss.
Have fun with it and if you have any ?s or comments then email me at
brandondelatorre@verizon.net  

p.s. play it loud.

Eb Tuning

Key:
/    = slide up
\    = slide down
b    = bend (whole step)
b^   = bend (1/2 step)
pb   = pre-bend
r    = release-bend
h^   = hammer-on
p^   = pull-off
~    = Vibrato
*    = Natural Harmonic
**   = Artficial Harmonic

Rhythm Fig. 1

Eb|----------------------------------------------------|
Bb|--------------12----11-9------------10---9-11-------|
Gb|---9-9--11/13-------11-9--7-7--9/11------9-11-------|
Db|---9-9--------------------7-7-----------------------|
Ab|----------------------------------------------------|
Eb|----------------------------------------------------|
   <--------------------2x----------------------------


Eb|----------------------------------------------------|
Bb|----------------------------------------------------|
Gb|2-2-2-2-4b^4p^2~/-4-4-4-4-6b^6p^4~------------------|
Db|2-2-4-2-4b^4p^2~/-4-4-6-4-6b^6p^4~------------------|
Ab|0-0-0-0---------------------------------------------|
Eb|----------------------------------------------------|
   --------------------------------->
   
end. 1
   
Eb|----------------------------------------------------|
Bb|----------------------------------------------------|
Gb|--9-9-9--9-9--9-9-9--9-11br11-----------------------|
Db|--9-9-11-9-11-9-9-11-9-11br11-----------------------|
Ab|----------------------------------------------------|
Eb|----------------------------------------------------|
     <-------------2x---------->

Rhythm Fig. 2
   
Eb|----------------------------------------------------|
Bb|------------------------------9-8-6-----------------|
Gb|-9-9-9--9-9--9-9-9--9-4-4-6/8---8-6------9-9-9--9-9-|
Db|-9-9-11-9-11-9-9-11-9-4-4----------------9-9-11-9-11|
Ab|----------------------------------------------------|
Eb|----------------------------------------------------|
[ Tab from: http://www.guitartabs.cc/tabs/k/kiss/mr_speed_tab_ver_3.html ]
Eb|-------------------------------------------------------------|
Bb|----------------------------------9-6-4----------------------|
Gb|-9-9-9--9-11br11-9-9-9--9-4-4-6/8---6-4--2-2-2-2-2-2-2-2-2---|
Db|-9-9-11-9-11br11-9-9-11-9-4-4------------2-2-4-2-4-2-2-4-2---|
Ab|-----------------------------------------0-0-0-0-0-0-0-0-0---|
Eb|-------------------------------------------------------------|

Rhythm Fig. 3

Eb|----------------------------------------------------|
Bb|----------12--------------9-------------------------|
Gb|-9-9-11/13---11-9--4-4-6/8--6-4/6--9----------------|
Db|-9-9---------11-9--4-4------6-4/6--9----------------|
Ab|----------------------------------------------------|
Eb|----------------------------------------------------|

Eb|----------------------------------------------------|
Bb|----------12--------------9-------------------------|
Gb|-9-9-11/13---11-9--4-4-6/8--6-4-2-2-2-2-2-2-2-2-2-2-|
Db|-9-9---------11-9--4-4------6-4-2-2-4-2-4-2-2-4-2-2-|
Ab|--------------------------------0-0-0-0-0-0-0-0-0-0-|
Eb|----------------------------------------------------|


Rhythm Fig. 4

Eb|----------------------------------------------------|
Bb|----------------------------------------------------|
Gb|-9-9-9--9-7-7-7-7--2-2-2-2-4-4-4-4------------------|
Db|-9-9-11-9-7-7-9-7--2-2-4-2-4-4-6-4------------------|
Ab|-------------------0-0-0-0--------------------------|
Eb|----------------------------------------------------|


Solo Rhythm. (play as per recording)

Eb|----------------------------------------------------|
Bb|----------------------------------------------------|
Gb|--6--2--6--6--2--6--4-------------------------------|
Db|--6--2--6--6--2--6--4-------------------------------|
Ab|--4--0--4--4--0--4--2-------------------------------|
Eb|----------------------------------------------------|

Solo


Eb|----------------------------------------------------|
Bb|------------------------------------------12br12p^9-|
Gb|---pb11r-pb11r-pb11r-9h^11p^9---------9~~-----------|
Db|---------------------------------9-11---------------|
Ab|------------------------------11--------------------|
Eb|----------------------------------------------------|

Eb|----------------9-9------9-----9-9-----9------9-9-9-|
Bb|-12b~~~~~~------9-9------9-----9-9-----9------9-9-9-|
Gb|------------11b-----11b----11b-----11b----11b-------|
Db|----------------------------------------------------|
Ab|----------------------------------------------------|
Eb|----------------------------------------------------|

Eb|----------------------------------------------------|
Bb|-12p^11p^9-12p^11p^9--------------------------------|
Gb|-----------12p^11p^9--11br11p^9h^11~~~~~~~~~--------|
Db|----------------------------------------------------|
Ab|----------------------------------------------------|
Eb|----------------------------------------------------|
Comments