Kiss - Mr Speed Chords & Tabs

 

Mr Speed Chords & Tabs

Kiss Chords & Tabs

Version: 2 Type: Tab 0 ratings
1 star 2 stars 3 stars 4 stars 5 stars
comments

Mr Speed Tab

Song:Mr. Speed by Kiss (this song is awesome)
Album:Rock and Roll Over
tune down 1/2 step.
*note this song has a really cool sound, and i've discovered how to get it.
turn the pre-gain to 5 and the post gain to about 2.  this gives the song that unique sound.


Intro/Main riff/Chorus:
[ Tab from: http://www.guitartabs.cc/tabs/k/kiss/mr_speed_tab_ver_2.html ]
E-------7-------------5---------------------------------------|
B---7h9--7--------5h7--5--------------------------------------|
G-9--------9---7---------7--2-2-4-2-4b-2-4-4-6-4-6b-4---------|
D-9--------9---7---------7--2-2-4-2-4b-2-4-4-6-4-6b-4---------|Repeat
A-------------------------------------------------------------|
E-------------------------------------------------------------|

When verses start play:

E------------------------------|
B------------------------------|
G-8-8----8----8-8----8-8b------|
D-8-8-10-8-10-8-8-10-8-8b------|
A-----10---10-----10-----------|
E------------------------------|


Tabbed by David
Sorry, no solo, i've only been playing for a couple months.

(if you like metallica, check out my enter sandman tab, it's 100% correct.)
Comments